The Rolling Stones

home > The Rolling Stones

Anybody Seen My Baby? (solo) Tab

The Rolling Stones

Difficulty: IntermediateIntermediate

by peretto

tuner correct add songbook print version text version save to e-mail
chordsukulelecavacokeyboardtabbassdrumsharmonicsflute Guitar Pro
chords

Anybody Seen My Baby? (solo)

  		Rolling Stones _ Anybody Seen My Baby? 
Disco: Bridges to Babylon 
Solo: (ronnie wood) 
 
 
e|-------13-15-15b16-16r15-13~-----------------| 
B|-13-15-----------------------15b16-16r15-13~-| 
G|---------------------------------------------| 
D|---------------------------------------------| 
A|---------------------------------------------| 
E|---------------------------------------------| 
 
e|-----------------------------------------------------------| 
B|-15-13-15-13-----------------------------------------------| 
G|-------------14-12h14-12\--14-12---------------------------| 
D|---------------------------------14-12-14b15-15r14-12-12~~-| 
A|-----------------------------------------------------------| 
E|-----------------------------------------------------------| 
 
(usar a mesma base do Refrão da música) 
 
 
_________________________________________________ 
 
 
 
 

	  

Search Paypal
auto scroll beats size up size down change color hide chords drawings
tab show chords e-chords YouTube Clip e-chords hide all tabs e-chords go to top tab