The Rival Mob

The Brutes Of Force

The Rival Mob

tabs

by  CARLLUZ

save to print version add songbook text version e-mail correct tuner
chordsukulelecavacokeyboardtabbassdrumsharmonicaflute Guitar Pro
close

there isn't a video lesson for this song

chords

The Brutes Of Force

	  		

Tuning: Standard 

INTRO/VERSE 
e|---------------------------------------------------------------------------| 
B|---------------------------------------------------------------------------| 
G|---------------------------------------------------------------------------| 
D|-9--9-9-9-7-9-10--12-10-9--9-9----5--5-8-7--7-10-9--9-9-9-9-9-9-9----------| x4 
A|-9--9-9-9-7-9-10--12-10-9--9-9----5--5-8-7--7-10-9--9-9-9-9-9-9-9----------| 
E|-7--7-7-7-5-7-8---10--8-7--7-7----3--3-6-5--5-8--7--7-7-7-7-7-7-7----------| 

Chorus 
e|---------------------------------------------------------------------------| 
B|---------------------------------------------------------------------------| 
G|------------------------------------------------10-9-----------------------| 
D|-9------7------5------3------2--2--x3----9------10-9--12--9--9-9-----------| 
A|-9------7------5------3------2--2--------9------8--7--12--9--9-9-----------| 
E|-7----0-5----0-3----0-1----0-0--0--------7------------10--7--7-7-----------| 

INTRO/VERSE x4 

Chorus 

e|---------------------------------------------------------------------------| 
B|---------------------------------------------------------------------------| 
G|---------------------------------------------------------------------------| 
D|-9----9----9---9--9--9-9---------------------------------------------------| 
A|-9----9----9---9--9--9-9---------------------------------------------------| 
E|-7----7----7---7--7--7-7---------------------------------------------------| 

e|---------------------------------------------------------------------------| 
B|---------------------------------------------------------------------------| 
G|-4---5-8-7---4---5-7-5---4---2-4-5---7-5-4----4-------4-------4-------4----| 
D|-4---5-8-7---4---5-7-5---4---2-4-5---7-5-4--4-4-4-4-4-4-4-4-4-4-4-4-4-4-4--| x4 
A|-2---3-6-5---2---3-5-3---2---0-2-3---5-3-2--2-2-2-2-2-2-2-2-2-2-2-2-2-2-2--| 
E|---------------------------------------------------------------------------| 
PM|                                           .   . . .   . . .   . . .   . 

Chorus 
		  

See also:

tabs Deep Purple - Black Night tabs Deep Purple - Soldier Of Fortune tabs Deep Purple - Demon's Eye tabs Ira! - Envelheço na Cidade tabs Deep Purple - Smoke on the Water (correct) tabs Ira! - Tarde Vazia (Acústico)
e-chords

Other versions:

tabs The Rival Mob - The Brutes Of Force
auto scroll beats size up size down change color hide chords drawings
tab show chords e-chords YouTube Clip e-chords hide all tabs e-chords go to top tab

share