The Rival Mob

Self-esteem

The Rival Mob

tabs

by  CARLLUZ

save to print version add songbook text version e-mail correct tuner
chordsukulelecavacokeyboardtabbassdrumsharmonicaflute Guitar Pro
close

there isn't a video lesson for this song

chords

Self-esteem

	  		

Tuning: Standard 

INTRO/VERSE 
e|---------------------------------------------------------------------------| 
B|---------------------------------------------------------------------------| 
G|---------------------------------------------------------------------------| 
D|-6-6-6-10-7-4-4-7--6-6-6-10-7-4-4-7--6-6-6-10-7-4-4-7----9----5----6-------| x3 
A|-6-6-6-10-7-4-4-7--6-6-6-10-7-4-4-7--6-6-6-10-7-4-4-7----9----5----6-------| 
E|-4-4-4-8--5-2-2-5--4-4-4-8--5-2-2-5--4-4-4-8--5-2-2-5----7----3----4-------| 

e|---------------------------------------------------------------------------| 
B|---------------------------------------------------------------------------| 
G|---------------------------------------------------------------------------| 
D|-6---------------10-10-10-10-9-9-9-9---------------------------------------| 
A|-6-6-6-6-6-6-5-5-10-10-10-10-9-9-9-9---------------------------------------| 
E|-4-4-4-4-4-4-3-3-8--8--8--8--7-7-7-7---------------------------------------| 
PM|  . . . . . . . 

e|---------------------------------------------------------------------------| 
B|---------------------------------------------------------------------------| 
G|---------------------------------------------------------------------------| 
D|-5-6--6--10-9--6-6--6-4-4--4------6-6--6-9-9--9-8-8--8-7-7--7--------------|  
A|-5-6--6--10-9--6-6--6-4-4--4--x5--6-6--6-9-9--9-8-8--8-7-7--7--x3----------| 
E|-3-4--4--8--7--4-4--4-2-2--2------4-4--4-7-7--7-6-6--6-5-5--5--------------| 

e|---------------------------------------------------------------------------| 
B|---------------------------------------------------------------------------| 
G|---------------------------------------------------------------------------| 
D|-6-----9------8------7------6----6----6--------------------9----5----6-----| 
A|-6-----9------8------7------6----6----6---6-6-6-6-6-6-6----9----5----6-----| 
E|-4-----7------6------5------4----4----4---4-4-4-4-4-4-4----7----3----4-----| 
PM|                                         . . . . . . . 

INTRO/VERSE x2 
		  

See also:

tabs Deep Purple - Black Night tabs Deep Purple - Soldier Of Fortune tabs Deep Purple - Demon's Eye tabs Ira! - Envelheço na Cidade tabs Deep Purple - Smoke on the Water (correct) tabs Ira! - Tarde Vazia (Acústico)
e-chords

Other versions:

tabs The Offspring - Self Esteem tabs The Rival Mob - Self-esteem
auto scroll beats size up size down change color hide chords drawings
tab show chords e-chords YouTube Clip e-chords hide all tabs e-chords go to top tab

share