The Rival Mob

It Must Be Nice

The Rival Mob

tabs

by  CARLLUZ

save to print version add songbook text version e-mail correct tuner
chordsukulelecavacokeyboardtabbassdrumsharmonicaflute Guitar Pro
close

there isn't a video lesson for this song

chords

It Must Be Nice

	  		

INTRO/VERSE x3 
e|---------------------------------------------------------------------------| 
B|---------------------------------------------------------------------------| 
G|---------------------------------------------------------------------------| 
D|-5-5--5--5-5--5--11-10-8-6-8----5-5--5-3-3--3-6-6--6-8-5--5-5--------------| 
A|-5-5--5--5-5--5--11-10-8-6-8----5-5--5-3-3--3-6-6--6-8-5--5-5--------------| 
E|-3-3--3--3-3--3--9--8--6-4-6----3-3--3-1-1--1-4-4--4-6-3--3-3--------------| 


e|---------------------------------------------------------------------------| 
B|---------------------------------------------------------------------------| 
G|---------------------------------------------------------------------------| 
D|----------8---6-5-3-5-----------------8---11-10-8--11-10-8-----------------| x2 
A|-55555555-8---6-5-3-5--------55555555-8---11-10-8--11-10-8-----------------| 
E|-33333333-6---4-3-1-3--------33333333-6---9--8--6--9--8--6-----------------| 

e|---------------------------------------------------------------------------| 
B|---------------------------------------------------------------------------| 
G|---------------------------------------------------------------------------| 
D|-5-------------------------------------------------------------------------| 
A|-5-------------------------------------------------------------------------| 
E|-3-------------------------------------------------------------------------| 

Intro/verse played with solo 

INTRO/VERSE x2 

e|---------------------------------------------------------------------------| 
B|---------------------------------------------------------------------------| 
G|---------------------------------------------------------------------------| 
D|-5--------8--5--------8--5--------8-5--------------------------------------| 
A|-5--------8--5--------8--5--------8-5-5-5-5-5-5-5-5------------------------| 
E|-3--------6--3--------6--3--------6-3-3-3-3-3-3-3-3------------------------| 
PM|                                     . . . . . . . 

e|---------------------------------------------------------------------------| 
B|---------------------------------------------------------------------------| 
G|---------------------------------------------------------------------------| 
D|-5-3-5-11--10--8--5-3-5--10--8---5--6-6-6-3---6-8-5------------------------| x6 
A|-5-3-5-11--10--8--5-3-5--10--8---5--6-6-6-3---6-8-5-5-5-5-5-5-5-5----------| 
E|-3-1-3-9---8---6--3-1-3--8---6---3--4-4-4-1---4-6-3-3-3-3-3-3-3-3----------| 

ENDING 
e|---------------------------------------------------------------------------| 
B|---------------------------------------------------------------------------| 
G|---------------------------------------------------------------------------| 
D|-6--66666666666--10-8-6-5-55555555555-3-5----------------------------------| 
A|-6--66666666666--10-8-6-5-55555555555-3-5----------------------------------| 
E|-4--44444444444--8--6-4-3-33333333333-1-3----------------------------------| 

e|---------------------------------------------------------------------------| 
B|---------------------------------------------------------------------------| 
G|---------------------------------------------------------------------------| 
D|-6--66666666666--10-8-6-5---11-10-6---10-8-5-------------------------------| 
A|-6--66666666666--10-8-6-5---11-10-6---10-8-5-------------------------------| 
E|-4--44444444444--8--6-4-3---9--8--4---8--6-3-------------------------------| 
		  

See also:

tabs Deep Purple - Black Night tabs Deep Purple - Soldier Of Fortune tabs Deep Purple - Demon's Eye tabs Ira! - Envelheço na Cidade tabs Deep Purple - Smoke on the Water (correct) tabs Ira! - Tarde Vazia (Acústico)
e-chords

Other versions:

tabs The Rival Mob - It Must Be Nice
auto scroll beats size up size down change color hide chords drawings
tab show chords e-chords YouTube Clip e-chords hide all tabs e-chords go to top tab

share