The Rival Mob

Friendly Freaks

The Rival Mob

tabs

by  CARLLUZ

save to print version add songbook text version e-mail correct tuner
chordsukulelecavacokeyboardtabbassdrumsharmonicaflute Guitar Pro
close

there isn't a video lesson for this song

chords

Friendly Freaks

	  		

Tuning: Standard 

INTRO/VERSE 
e|---------------------------------------------------------------------------| 
B|---------------------------------------------------------------------------| 
G|----------------------------------------------8----------------------------| 
D|-7--7-7-7--7-7-7-7-6--------7--7-7-7--7-7-7-7-8----------------------------| 
A|-7--7-7-7--7-7-7-7-6--------7--7-7-7--7-7-7-7-6----------------------------| 
E|-5--5-5-5--5-5-5-5-4--------5--5-5-5--5-5-5-5------------------------------| 
                                                                               x2 
e|---------------------------------------------------------------------------| 
B|---------------------------------------------------------------------------| 
G|-------------------------------------8-8-8-8-8-8-8-------------------------| 
D|-7--7-7-7--7-7-7-7-6--------7--7-7-7-8-8-8-8-8-8-8-------------------------| 
A|-7--7-7-7--7-7-7-7-6--------7--7-7-7-6-6-6-6-6-6-6-------------------------| 
E|-5--5-5-5--5-5-5-5-4--------5--5-5-5---------------------------------------| 

Chorus 
e|---------------------------------------------------------------------------| 
B|---------------------------------------------------------------------------| 
G|---------------------------------------------------------------------------| 
D|-7-7--7---10-10--10---12-8--8---7-7--7-------------------------------------| x4 
A|-7-7--7---10-10--10---12-8--8---7-7--7-------------------------------------| 
E|-5-5--5---8--8---8----10-6--6---5-5--5-------------------------------------| 

e|---------------------------------------------------------------------------| 
B|---------------------------------------------------------------------------| 
G|-----------------------------------------8---------------------------------| 
D|-7--7-7-7--7-7-7-7-6---7--7-7-7--7-7-7-7-8---7--7-7-7--7-7-7-7-6---7-------| 
A|-7--7-7-7--7-7-7-7-6---7--7-7-7--7-7-7-7-6---7--7-7-7--7-7-7-7-6---7-------| 
E|-5--5-5-5--5-5-5-5-4---5--5-5-5--5-5-5-5-----5--5-5-5--5-5-5-5-4---5-------| 

INTRO/VERSE x 1 
Chorus x 4 

SOLO 
e|---------------------------------------------------------------------------| 
B|---------------------------------------------------------------------------| 
G|-8-8--8-8------------------------------------------------------------------| 
D|-8-8--8-8-10-8-7-7--7-7-7---10-10--10-10-8--8-7-7--7-7-7--7----------------| 
A|-6-6--6-6-10-8-7-7--7-7-7---10-10--10-10-8--8-7-7--7-7-7--7----------------| 
E|----------8--6-5-5--5-5-5---8--8---8--8--6--6-5-5--5-5-5--5----------------| 

e|---------------------------------------------------------------------------| 
B|---------------------------------------------------------------------------| 
G|-8-8--8-8------------------------------------------------------------------| 
D|-8-8--8-8-10-8-7-7--7-7-7---10-10--10-10-8--8-7----7-----------------------| 
A|-6-6--6-6-10-8-7-7--7-7-7---10-10--10-10-8--8-7----7-----------------------| 
E|----------8--6-5-5--5-5-5---8--8---8--8--6--6-5----5-----------------------| 

e|---------------------------------------------------------------------------| 
B|---------------------------------------------------------------------------| 
G|---------------------------------------------------------------------------| 
D|-7-----------------------7-7-8---------------------------------------------| 
A|-7-7-7-7-7-7-7-7-7-7-7-7-7-7-8---------------------------------------------| 
E|-5-5-5-5-5-5-5-5-5-5-5-5-5-5-6---------------------------------------------| 
PM|  . . . . . . . . . . .  

BREAKDOWN 
e|---------------------------------------------------------------------------| 
B|---------------------------------------------------------------------------| 
G|---------------------------------------------------------------------------| 
D|-7--7-7-7-8--8-8-8-2--3--6--5--5-5-5---7--7-7-7-8--8-8-8-10-7--------------| x2 
A|-7--7-7-7-8--8-8-8-2--3--6--5--5-5-5---7--7-7-7-8--8-8-8-10-7-7-7-7-7-7-7--| 
E|-5--5-5-5-6--6-6-6-0--1--4--3--3-3-3---5--5-5-5-6--6-6-6-8--5-5-5-5-5-5-5--| 
PM|                                                             . . . . . . 

OUTRO 
e|---------------------------------------------------------------------------| 
B|---------------------------------------------------------------------------| 
G|---------------------------------------------------------------------------| 
D|-7--8----6--5--5-5----7--8----10-7-----------------------------------------| 
A|-7--8----6--5--5-5----7--8----10-7-7-7-7-7-7-7-----------------------------| 
E|-5--6----4--3--3-3----5--6----8--5-5-5-5-5-5-5-----------------------------| 
PM|                                  . . . . . . 

END ON 
e|---------------------------------------------------------------------------| 
B|---------------------------------------------------------------------------| 
G|---------------------------------------------------------------------------| 
D|-7-------------------------------------------------------------------------| 
A|-7-------------------------------------------------------------------------| 
E|-5-------------------------------------------------------------------------| 
		  

See also:

tabs Deep Purple - Black Night tabs Deep Purple - Soldier Of Fortune tabs Deep Purple - Demon's Eye tabs Ira! - Envelheço na Cidade tabs Deep Purple - Smoke on the Water (correct) tabs Ira! - Tarde Vazia (Acústico)
e-chords

Other versions:

tabs The Rival Mob - Friendly Freaks
auto scroll beats size up size down change color hide chords drawings
tab show chords e-chords YouTube Clip e-chords hide all tabs e-chords go to top tab

share