The Rival Mob

Fake Big

The Rival Mob

tabs

by  CARLLUZ

save to print version add songbook text version e-mail correct tuner
chordsukulelecavacokeyboardtabbassdrumsharmonicaflute Guitar Pro
close

there isn't a video lesson for this song

chords

Fake Big

	  		

Tuning: Standard 

INTRO/VERSE 
e|---------------------------------------------------------------------------| 
B|---------------------------------------------------------------------------| 
G|---------------------------------------------------------------------------| 
D|-7--7-7-8--5-7-------7-4-4-4---11-8-8-8---8-10-10--------------------------| x3 
A|-7--7-7-8--5-7-------7-4-4-4---11-8-8-8---8-10-10--------------------------| 
E|-5--5-5-6--3-5-------5-2-2-2---9--6-6-6---6-8--8---------------------------| 

Chorus 
e|---------------------------------------------------------------------------| 
B|---------------------------------------------------------------------------| 
G|-----------------------------8---------------------------------------------| 
D|-7-----------8-5-7-----------8-10-7-----------8-5-4-4-4-4-4-9-8-8----------| x2 
A|-7-7-7-7-7-7-8-5-7-7-7-7-7-7-6-10-7-7-7-7-7-7-8-5-4-4-4-4-4-9-8-8----------| 
E|-5-5-5-5-5-5-6-3-5-5-5-5-5-5---8--5-5-5-5-5-5-6-3-2-2-2-2-2-7-6-6----------| 
PM|  . . . . .       . . . . .        . . . . . 

VERSE x2 

Chorus x2 

e|---------------------------------------------------------------------------| 
B|---------------------------------------------------------------------------| 
G|-------------------8-8-8---------------------------------------------------| 
D|-5-7----5-7-8----8-8-8-8-10----5-7-4---------------------------------------| x3 
A|-5-7----5-7-8----8-6-6-6-10----5-7-4---------------------------------------| 
E|-3-5----3-5-6----6-------8-----3-5-2---------------------------------------| 

e|---------------------------------------------------------------------------| 
B|---------------------------------------------------------------------------| 
G|---------------------------------------------------------------------------| 
D|-7---------------------------8-5-7-----------------------------------------| x2 
A|-7-7-7-7-7-7-7-7-7-7-7-7-7-7-8-5-7-7-7-7-7-7-7-7-7-7-8-8-5-5-6-6-----------| 
E|-5-5-5-5-5-5-5-5-5-5-5-5-5-5-6-3-5-5-5-5-5-5-5-5-5-5-6-6-3-3-4-4-----------| 
PM|  . . . . . . . . . . . . .       . . . . . . . . . . . . . . . 
		  

See also:

tabs Deep Purple - Black Night tabs Deep Purple - Soldier Of Fortune tabs Deep Purple - Demon's Eye tabs Ira! - Envelheço na Cidade tabs Deep Purple - Smoke on the Water (correct) tabs Ira! - Tarde Vazia (Acústico)
e-chords

Other versions:

tabs The Rival Mob - Fake Big
auto scroll beats size up size down change color hide chords drawings
tab show chords e-chords YouTube Clip e-chords hide all tabs e-chords go to top tab

share