The Rival Mob

Be Somebody

The Rival Mob

tabs

by  CARLLUZ

save to print version add songbook text version e-mail correct tuner
chordsukulelecavacokeyboardtabbassdrumsharmonicaflute Guitar Pro
close

there isn't a video lesson for this song

chords

Be Somebody

	  		

Tuning: Standard 

e|---------------------------------------------------------------------------| 
B|---------------------------------------------------------------------------| 
G|---------------------------------------------------------------------------| 
D|-8-7-----10-5-7-4--------8-7-----10-5-7-4-------------------------------7--| 
A|-8-7-----10-5-7-4--------8-7-----10-5-7-4-4-4-4-4-4-4-4-4-4-4-4-4-4-4-4-7--| 
E|-6-5-----8--3-5-2--------6-5-----8--3-5-2-2-2-2-2-2-2-2-2-2-2-2-2-2-2-2-5--| 
PM|                                         . . . . . . . . . . . . . . . 

e|---------------------------------------------------------------------------| 
B|---------------------------------------------------------------------------| 
G|---------------------------------------------------------------------------| 
D|-7-7--7-8-8--8-2-3-5-7-7--7------7-7--7-8-8--8-10-7-7--7-7-----------------| x4 
A|-7-7--7-8-8--8-2-3-5-7-7--7------7-7--7-8-8--8-10-7-7--7-7-----------------| 
E|-5-5--5-6-6--6-0-1-3-5-5--5------5-5--5-6-6--6-8--5-5--5-5-----------------| 

e|---------------------------------------------------------------------------| 
B|---------------------------------------------------------------------------| 
G|-5-5--5-5-5----------------------------------------------------------------| 
D|-5-5--5-5-5--8--7-7--7-7--7---x4---7-2-5-----7-2-5-----7-2-5----7----------| 
A|-3-3--3-3-3--8--7-7--7-7--7--------7-2-5-----7-2-5-----7-2-5----7----------| 
E|-------------6--5-5--5-5--5--------5-0-3-----5-0-3-----5-0-3----5----------| 


e|---------------------------------------------------------------------------| 
B|---------------------------------------------------------------------------| 
G|--------8----5------------------------8----5-------------------------------| 
D|-7-5-7--8----5---8-8---7-7-----7-5-7--8----5---8-8---7-7-5-7--7------------| x4 
A|-7-5-7--6----3---8-8---7-7-----7-5-7--6----3---8-8---7-7-5-7--7------------| 
E|-5-3-5-----------6-6---5-5-----5-3-5-----------6-6---5-5-3-5--5------------| 

e|---------------------------------------------------------------------------| 
B|---------------------------------------------------------------------------| 
G|---------------------------------------------------------------------------| 
D|-8-7-----10-5-7-4--------8-7-----10-5-7-4----------------------------------| 
A|-8-7-----10-5-7-4--------8-7-----10-5-7-4----------------------------------| 
E|-6-5-----8--3-5-2--------6-5-----8--3-5-2----------------------------------| 
		  

See also:

tabs Deep Purple - Burn tabs Deep Purple - Lazy tabs Deep Purple - Deep Purple - Smoke On The Water tabs Deep Purple - Stormbringer tabs Deep Purple - Demon's Eye tabs Albert Hammond Jr - Holiday
e-chords

Other versions:

tabs Kings of Leon - Be Somebody tabs Thousand Foot Krutch - Be Somebody tabs The Rival Mob - Be Somebody tabs Boyce Avenue - Be Somebody
auto scroll beats size up size down change color hide chords drawings
tab show chords e-chords YouTube Clip e-chords hide all tabs e-chords go to top tab

share