save to print version add songbook text version e-mail correct tuner
chordsukulelecavacokeyboardtabbassdrumsharmonicaflute Guitar Pro
close

there isn't a video lesson for this song

chords

Worryin' Kind

	  		Worryin' Kind 
by The Reverend Peyton's Big Damn Band 
 
STANDARD TUNING 
 
This is done through the whole song 
|--------------------------- 
|--------------------------- 
|---------------------------etc. 
|--------------------------- 
|--------------------------- 
|--3-3-3-3-3-3-3-3-3-3-3-3-- 
 
Main Riff 
|----------------------------- 
|----------------------------- 
|--2/4-4-4-4-4-4-2-4-2-0---0-- 
|------------------------2---- x2 
|----------------------------- 
|----------------------------- 
 
|--------------------------3---0-3-- 
|------------3~--------------3------ 
|--0-2-2/4-4-----2-0---0~----------- 
|--------------------2-------------- 
|----------------------------------- 
|----------------------------------- 
 
that's the whole song 
 

		  

See also:

tabs Corey Smith - Twenty-One tabs Allman Brothers Band - Revival tabs Mississipi John Hurt - Stack O' Lee Blues tabs Blind Blake - Bad Feeling Blues tabs Stevie Ray Vaughn and Double Trouble - Life By The Drop tabs Albert King - Oh Pretty Woman
e-chords

Other versions:

tabs The Rev. Peyton's Big Damn Band - Worryin' Kind
auto scroll beats size up size down change color hide chords drawings
tab show chords e-chords YouTube Clip e-chords hide all tabs e-chords go to top tab

share