save to print version add songbook text version e-mail correct tuner
chordsukulelecavacokeyboardtabbassdrumsharmonicaflute Guitar Pro
close

there isn't a video lesson for this song

chords

Sugar Man

	  		riff 
|------------------------------------------- 
|------------------------------------------- 
|------------------------------------------- 
|---2-2-2-2--3-3-3-3--2-2-2-2--0-0-333-2-0-- 
|--3-3-3-3--3-3-3-3--3-3-3-3---------------- 
|-----------------------------3-3----------- 
 
riff 2 
|--3~-3-0--1~-1h3-1--0~-3-0--3--------111-0----| 
|------------------------------3~-3-3-------3--| 
|----------------------------------------------| 
|----------------------------------------------| 
|--3~-3-3------------3~-3-3--------------------| 
|----------1~-1---1----------3-----------------| 

		  

See also:

tabs Blind Blake - One Time Blues tabs Robert Johnson - Red Hots tabs Rival Sons - Keep On Swinging tabs John Lee Hooker - whiskey and wimmen tabs Mississipi John Hurt - Stack O' Lee Blues tabs Muddy Waters - I can't be satisfied
e-chords

Other versions:

tabs The Rev. Peyton's Big Damn Band - Sugar Man
auto scroll beats size up size down change color hide chords drawings
tab show chords e-chords YouTube Clip e-chords hide all tabs e-chords go to top tab

share