The Raveonettes

God Rest Ye Merry Gentlemen

The Raveonettes

tabs Expert expert

save to print version add songbook text version e-mail correct tuner
chordsukulelecavacokeyboardtabbassdrumsharmonicaflute Guitar Pro
close

there isn't a video lesson for this song

chords

God Rest Ye Merry Gentlemen

	  		Traditional Christmas 
 
Arranged In The Key Of -Am- 
 
                 
 
E-------0-0-------------------0-----0-0-------------------0--- 
B-----------3-1-0-------0-1-3-----------3-1-0-------0-1-3----- 
G--2--2-----------2-0-2-----------2-----------2-0-2----------- 
D------------------------------------------------------------- 
A------------------------------------------------------------- 
E------------------------------------------------------------- 
 
 
E--0-1---0-1-3-5-0---------------------0--0h1-0-0------------- 
B------3-----------3-1---0-1-3---1-3--------------3-1-0------- 
G----------------------2--------------------------------2----- 
D------------------------------------------------------------- 
A------------------------------------------------------------- 
E------------------------------------------------------------- 
 
 
E-----------------0-1-3-5-0--------------- 
B--1p0---3---1-3-------------3-1-0-------- 
G------2---------------------------2------ 
D----------------------------------------- 
A----------------------------------------- 
E----------------------------------------- 
		  

Full key step upFull key step up
Half key step upHalf key step up
Half key step downHalf key step down
Full key step downFull key step down
auto scroll beats size up size down change color hide chords drawings
tab show chords e-chords YouTube Clip e-chords hide all tabs e-chords go to top tab

share