The Ranch

Walkin The Country

The Ranch

tabs Expert expert

save to print version add songbook text version e-mail correct tuner
chordsukulelecavacokeyboardtabbassdrumsharmonicaflute Guitar Pro
close

there isn't a video lesson for this song

chords

Walkin The Country

	  		 
INTRO (REPEAT x2) 
 
E--------------------------------------------------------0------------| 
B--------------------------------------------------------0------------| 
G---------------------------------2-----------------------------------| 
D-------2----2---2------2----2----2---2----2---2------------------2---| 
A--2h4---2h4--2h4--4p2---2h4--2h4-0----2h4--2h4-4p2-0h1h2-2p0-----2---| 
E------0----0----------0----0--------0----0------------------3b-0-0---| 
 
 
 
SOLO 
 
E------------------------------------------------------------ 
B---------------------------------------------5-5---7-5------ 
G--------------------------------------4-4-4h6---6bh-6-6r-4-- 
D--4bh-4-4-4-4-4-4-4-4-4r-p2-0-2-2--4/6---------------------- 
A---------------------------4---2---------------------------- 
E------------------------------------------------------------ 
 
 
E-----------------7-5---------------------------0--------------7-- 
B--7bh-7-7-7-7-7-7-7-7r-5p0-5---5-5-5--p2-2p0---3-------5--------- 
G---------------------------4bh-4-4-4r-p2-2p0---0--------6br-p4--- 
D----------------------------------------4---4p2--4br-p2---------- 
A----------------------------------------------------------------- 
E----------------------------------------------------------------- 
 
 
E----4--5--6---7---10---11------| 
B--7b-8b-9b-10b-13b--14b--15b---| 
G-------------------------------| 
D-------------------------------| 
A-------------------------------| 
E-------------------------------| 
		  

See also:

tabs John Denver - Take Me Home, Country Roads tabs Alison Krauss - You Say Nothing At All tabs Bat Country - Avenged sevenfold tabs Garth Brooks - The Dance tabs George Strait - Desperately tabs Charlie Daniels - Long Haired Country Boy (ver. 2)
e-chords

Other versions:

tabs Keith Urban - Walkin The Country tabs The Ranch - Walkin The Country
auto scroll beats size up size down change color hide chords drawings
tab show chords e-chords YouTube Clip e-chords hide all tabs e-chords go to top tab

share