The Pussycat Dolls

Stickwitu

The Pussycat Dolls

tabs

by  BRIAN<

save to print version add songbook text version e-mail correct tuner
chordsukulelecavacokeyboardtabbassdrumsharmonicaflute Guitar Pro
close

there isn't a video lesson for this song

chords

Stickwitu

	  		INTRO AND VERSE: 
 
 
           D                           Bm7 
e|---------2------------5----------------2-----------------------------| 
B|---------3------------5----------------3----2--3--5------------------| 
G|---------2------------4----------------2-----------------------------| 
D|---------0------------x----------------4-----------------------------| 
A|----------------------4----------------4----0--2--4------------------| 
E|---------------------------------------x-----------------------------| 
               I don't wanna go another day 
 
                     D                       Bm7           A 
e|-------------------2----------5-------------2------------0-----------| 
B|-------------------3----------5-------------3------------2-----------| 
G|-------------------2----------4-------------2------------2-----------| 
D|-------------------0----------x-------------4------------2-----------| 
A|------------------------------4-------------2------------0-----------| 
E|--------------------------------------------x------------------------| 
           so I'm telling you exactly what is on my mind 
 
         D                             Bm7 
e|---------2------------5---------------2------------------------------| 
B|---------3------------5---------------3----------------------2-3-5---| 
G|---------3------------4---------------2------------------------------| 
D|---------0------------x---------------4------------------------------| 
A|----------------------4---------------2----------------------0-2-4---| 
E|--------------------------------------x------------------------------| 
 seems like everybody's breaking up and throwing their love away 
 
              D                              Bm7             A 
e|------------2-----------5-------------------2--------------0-----------| 
B|------------3-----------5-------------------3--------------2-----------| 
G|------------2-----------4-------------------2--------------2-----------| 
D|------------0-----------x-------------------4--------------2-----------| 
A|------------------------4-------------------2--------------0-----------| 
E|--------------------------------------------x--------------------------| 
      but I know I got a good thing right here that's why I say  hey... 
 
 
Chorus 
         D                          Bm7 
e|-------2--------------5------------2-------------------------------| 
B|-------3--------------5------------3------------------2--3---5-----| 
G|-------2--------------4------------2-------------------------------| 
D|-------0--------------x------------4-------------------------------| 
A|----------------------4------------2------------------0--2---4-----| 
E|-----------------------------------x-------------------------------| 
          nobody gonna love me better  I'm a  stickwitu forever 
        you know how to appreciate me  I'm a  stickwitu my baby 
 
 
         D                              Bm7                    A 
e|-------2---------------5---------------2---------------------0---| 
B|-------3---------------5---------------3---------------------2---| 
G|-------2---------------4---------------2---------------------2---| 
D|-------0---------------x---------------4---------------------2---| 
A|-----------------------4---------------2---------------------0---| 
E|---------------------------------------x-------------------------| 
           nobody gonna take me higher           I'm a stickwitu 
          nobody ever made me feel this way      I'm a stickwitu 
 
 
    verse, Chorus... 
 
 
LAST PART OF 2ND Chorus: 
    D                        Bm7        Ebm7            F#m 
e|--2-------------------------2----------4---------------2---------- 
B|--3-------------------------3----------5---------- ----2---------- 
G|--2-------------------------2----------4---------------2---------- 
D|--0-------------------------4----------6---------------4---------- 
A|----------------------------2----------4---------------4---------- 
E|----------------------------x----------x---------------2---------- 
        ...you know how to appreciate me   I'm a stickwitu my baby 
 
      D                                 Bm7           A 
e|----2---------------5------------------2------------0------------- 
B|----3---------------5------------------3------------2------------- 
G|----2---------------4------------------2------------2------------- 
D|----0---------------x------------------4------------2------------- 
A|--------------------4------------------2------------0------------- 
E|---------------------------------------x-------------------------- 
          nobody ever made me feel this way  I'm a stickwitu 
 
 
BRIDGE: 
           Dmaj7                 Dbm7               F#m 
e|-----------2--------------------4------------------2-----------------| 
B|-----------2--------------------5------------------2-----------------| 
G|-----------2--------------------4------------------2-----------------| 
D|-----------0--------------------6------------------4-----------------| 
A|--------------------------------4------------------4-----------------| 
E|--------------------------------x------------------2-----------------| 
        and now            ain't nothing else I can need 
       and now now I'm singing 'cause you're so so into me 
         
 
 
           Dmaj7        Db7                           F#m 
e|----------2------------4-----------------------------2-----------| 
B|----------2------------6-----------------------------2-----------| 
G|----------2------------4-----------------------------2-----------| 
D|----------0------------6-----------------------------4-----------| 
A|-----------------------4-----------------------------4-----------| 
E|-----------------------x-----------------------------2-----------| 
        
     I got you we'll be making love             endlessly 
 
 
         Em7                    E 
e|--------2---------------------0--------------------------------------| 
B|--------3---------------------0--------------------------------------| 
G|--------2---------------------1--------------------------------------| 
D|--------4---------------------2--------------------------------------| 
A|--------2---------------------2--------------------------------------| 
E|--------x---------------------0--------------------------------------| 
     I'm with you  baby you're with me 
 
the following part ( so don't you worry about...) is sung with no guitar or keyboard,  
if you want to play it, use the same chords for the verse.. 
 
 
Chorus.. 
 

		  

Full key step upFull key step up
Half key step upHalf key step up
Half key step downHalf key step down
Full key step downFull key step down
auto scroll beats size up size down change color hide chords drawings
tab show chords e-chords YouTube Clip e-chords hide all tabs e-chords go to top tab

share