The Pussycat Dolls

I Hate This Part

The Pussycat Dolls

tabs Expert expert

by  L.E.O.

save to print version add songbook text version e-mail correct tuner
chordsukulelecavacokeyboardtabbassdrumsharmonicaflute Guitar Pro
close

there isn't a video lesson for this song

chords

I Hate This Part

	  		Este solo se repete a música inteira: 

E|-5-5-5-7-5-3-| 
B|-------------| 
G|-------------| 
D|-------------| 
A|-------------| 
E|-------------| 

E|-5-5-5-7-5-3-| 
B|-------------| 
G|-------------| 
D|-------------| 
A|-------------| 
E|-------------| 

E|-2-2-2-3-2-0-| 
B|-------------| 
G|-------------| 
D|-------------| 
A|-------------| 
E|-------------| 

E|-------------| 
B|-3-3-3-5-3-1-| 
G|-------------| 
D|-------------| 
A|-------------| 
E|-------------| 

		  

auto scroll beats size up size down change color hide chords drawings
tab show chords e-chords YouTube Clip e-chords hide all tabs e-chords go to top tab

share