The Pretenders

The Phone Call

The Pretenders

tabs

by  FERNSANTANA

save to print version add songbook text version e-mail correct tuner
chordsukulelecavacokeyboardtabbassdrumsharmonicaflute Guitar Pro
close

there isn't a video lesson for this song

chords

The Phone Call

	  		
Intro 

   G 
e|-3-3--3-3--3-3--3-3-3--| 
B|-3-3--3-3--3-3--3-3-3--| 
G|-4-4--3h4--4-4--3h4p3--| 
D|-5-5--3h5--4-4--3h5p3--| 3x 
A|-5-5--3h5--5-5--3h5p3--| 
E|-3-3--3-3--3-3--3-3-3--| 

e|-3-3--3-3--3--3-3-3--| 
B|-3-3--3-3--3--3-3-3--| 
G|-4-4--3h4--4--4-4-4--| 
D|-5-5--3h5--5--5-5-5--| 
A|-5-5--3h5--5--5-5-5--| 
E|-3-3--3-3--3--3-3-3--| 

   F 
e|-1--1---1-1---1--1---1-1---1--1---1-1---1--1--| 
B|-1--1---1-1---1--1---1-1---1--1---1-1---1--1--| 
G|-2--2---2-2---2--2---2-2---2--2---2-2---2--2--| 
D|-3--3---3-3---3--3---3-3---3--3---3-3---3--3--| 
A|-3--3---3-3---3--3---3-3---3--3---3-3---3--3--| 
E|-1--1---1-1---1--1---1-1---1--1---1-1---1--1--| 


Verse 

   G 
e|-3-3--3-3--3-3--3-3-3--| 
B|-3-3--3-3--3-3--3-3-3--| 
G|-4-4--3h4--4-4--3h4p3--| 
D|-5-5--3h5--4-4--3h5p3--| 3x 
A|-5-5--3h5--5-5--3h5p3--| 
E|-3-3--3-3--3-3--3-3-3--| 

e|-3-3--3-3--3--3-3-3--| 
B|-3-3--3-3--3--3-3-3--| 
G|-4-4--3h4--4--4-4-4--| 
D|-5-5--3h5--5--5-5-5--| 
A|-5-5--3h5--5--5-5-5--| 
E|-3-3--3-3--3--3-3-3--| 

   F 
e|-1--1---1-1---1--1---1-1---1--1---1-1---1--1--| 
B|-1--1---1-1---1--1---1-1---1--1---1-1---1--1--| 
G|-2--2---2-2---2--2---2-2---2--2---2-2---2--2--| 
D|-3--3---3-3---3--3---3-3---3--3---3-3---3--3--| 
A|-3--3---3-3---3--3---3-3---3--3---3-3---3--3--| 
E|-1--1---1-1---1--1---1-1---1--1---1-1---1--1--| 

   G 
e|-3-3--3-3--3-3--3-3-3--| 
B|-3-3--3-3--3-3--3-3-3--| 
G|-4-4--3h4--4-4--3h4p3--| 
D|-5-5--3h5--4-4--3h5p3--| 3x 
A|-5-5--3h5--5-5--3h5p3--| 
E|-3-3--3-3--3-3--3-3-3--| 

e|-3-3--3-3--3--3-3-3--| 
B|-3-3--3-3--3--3-3-3--| 
G|-4-4--3h4--4--4-4-4--| 
D|-5-5--3h5--5--5-5-5--| 
A|-5-5--3h5--5--5-5-5--| 
E|-3-3--3-3--3--3-3-3--| 

   F 
e|-1--1---1-1---1--1---1-1---1--1---1-1---1--1--| 
B|-1--1---1-1---1--1---1-1---1--1---1-1---1--1--| 
G|-2--2---2-2---2--2---2-2---2--2---2-2---2--2--| 
D|-3--3---3-3---3--3---3-3---3--3---3-3---3--3--| 
A|-3--3---3-3---3--3---3-3---3--3---3-3---3--3--| 
E|-1--1---1-1---1--1---1-1---1--1---1-1---1--1--| 

   G 
e|-3-3--3-3--3-3--3-3-3--| 
B|-3-3--3-3--3-3--3-3-3--| 
G|-4-4--3h4--4-4--3h4p3--| 
D|-5-5--3h5--4-4--3h5p3--| 3x 
A|-5-5--3h5--5-5--3h5p3--| 
E|-3-3--3-3--3-3--3-3-3--| 

e|-3-3--3-3--3--3-3-3--| 
B|-3-3--3-3--3--3-3-3--| 
G|-4-4--3h4--4--4-4-4--| 
D|-5-5--3h5--5--5-5-5--| 
A|-5-5--3h5--5--5-5-5--| 
E|-3-3--3-3--3--3-3-3--| 


Chorus 

   C# 
e|-----------------------------------| 
B|-6-6-6-6--6-6-6-6--6-6-6-6--6-6-6--| 
G|-6-6-6-6--6-6-6-6--6-6-6-6--6-6-6--| 
D|-6-6-6-6--6-6-6-6--6-6-6-6--6-6-6--| 
A|-4-4-4-4--4-4-4-4--4-4-4-4--4-4-4--| 
E|-----------------------------------| 

   A 
e|-------------------------------------| 
B|-2-2-2-2--2-2-2-2--2-2-2-2--2-2-2-2--| 
G|-2-2-2-2--2-2-2-2--2-2-2-2--2-2-2-2--| 
D|-2-2-2-2--2-2-2-2--2-2-2-2--2-2-2-2--| 
A|-0-0-0-0--0-0-0-0--0-0-0-0--0-0-0-0--| 
E|-------------------------------------| 

   C# 
e|-------------------------------------------------| 
B|-6-6-6-6--6-6-6-6--6-6-6-6--6-6-6-6--6-6-6-6--6--| 
G|-6-6-6-6--6-6-6-6--6-6-6-6--6-6-6-6--6-6-6-6--6--| 
D|-6-6-6-6--6-6-6-6--6-6-6-6--6-6-6-6--6-6-6-6--6--| 
A|-4-4-4-4--4-4-4-4--4-4-4-4--4-4-4-4--4-4-4-4--4--| 
E|-------------------------------------------------| 

   A 
e|-------------------------------------| 
B|-2-2-2-2--2-2-2-2--2-2-2-2--2-2-2-2--| 
G|-2-2-2-2--2-2-2-2--2-2-2-2--2-2-2-2--| 
D|-2-2-2-2--2-2-2-2--2-2-2-2--2-2-2-2--| 
A|-0-0-0-0--0-0-0-0--0-0-0-0--0-0-0-0--| 
E|-------------------------------------| 

   C# 
e|--------------------------------------------------------------| 
B|-6-6-6-6--6-6-6-6--6-6-6-6--6-6-6-6--6-6-6-6--6-6-6-6--6-6-6--| 
G|-6-6-6-6--6-6-6-6--6-6-6-6--6-6-6-6--6-6-6-6--6-6-6-6--6-6-6--| 
D|-6-6-6-6--6-6-6-6--6-6-6-6--6-6-6-6--6-6-6-6--6-6-6-6--6-6-6--| 
A|-4-4-4-4--4-4-4-4--4-4-4-4--4-4-4-4--4-4-4-4--4-4-4-4--4-4-4--| 
E|--------------------------------------------------------------| 

   A 
e|-------------------------------------| 
B|-2-2-2-2--2-2-2-2--2-2-2-2--2-2-2-2--| 
G|-2-2-2-2--2-2-2-2--2-2-2-2--2-2-2-2--| 
D|-2-2-2-2--2-2-2-2--2-2-2-2--2-2-2-2--| 
A|-0-0-0-0--0-0-0-0--0-0-0-0--0-0-0-0--| 
E|-------------------------------------| 


Interlude: bass, keyboard and drums 


Chorus 

   C# 
e|-----------------------------------| 
B|-6-6-6-6--6-6-6-6--6-6-6-6--6-6-6--| 
G|-6-6-6-6--6-6-6-6--6-6-6-6--6-6-6--| 
D|-6-6-6-6--6-6-6-6--6-6-6-6--6-6-6--| 
A|-4-4-4-4--4-4-4-4--4-4-4-4--4-4-4--| 
E|-----------------------------------| 

   A 
e|-------------------------------------| 
B|-2-2-2-2--2-2-2-2--2-2-2-2--2-2-2-2--| 
G|-2-2-2-2--2-2-2-2--2-2-2-2--2-2-2-2--| 
D|-2-2-2-2--2-2-2-2--2-2-2-2--2-2-2-2--| 
A|-0-0-0-0--0-0-0-0--0-0-0-0--0-0-0-0--| 
E|-------------------------------------| 

   C# 
e|-------------------------------------------------| 
B|-6-6-6-6--6-6-6-6--6-6-6-6--6-6-6-6--6-6-6-6--6--| 
G|-6-6-6-6--6-6-6-6--6-6-6-6--6-6-6-6--6-6-6-6--6--| 
D|-6-6-6-6--6-6-6-6--6-6-6-6--6-6-6-6--6-6-6-6--6--| 
A|-4-4-4-4--4-4-4-4--4-4-4-4--4-4-4-4--4-4-4-4--4--| 
E|-------------------------------------------------| 

   A 
e|-------------------------------------| 
B|-2-2-2-2--2-2-2-2--2-2-2-2--2-2-2-2--| 
G|-2-2-2-2--2-2-2-2--2-2-2-2--2-2-2-2--| 
D|-2-2-2-2--2-2-2-2--2-2-2-2--2-2-2-2--| 
A|-0-0-0-0--0-0-0-0--0-0-0-0--0-0-0-0--| 
E|-------------------------------------| 

   C# 
e|--------------------------------------------------------------| 
B|-6-6-6-6--6-6-6-6--6-6-6-6--6-6-6-6--6-6-6-6--6-6-6-6--6-6-6--| 
G|-6-6-6-6--6-6-6-6--6-6-6-6--6-6-6-6--6-6-6-6--6-6-6-6--6-6-6--| 
D|-6-6-6-6--6-6-6-6--6-6-6-6--6-6-6-6--6-6-6-6--6-6-6-6--6-6-6--| 
A|-4-4-4-4--4-4-4-4--4-4-4-4--4-4-4-4--4-4-4-4--4-4-4-4--4-4-4--| 
E|--------------------------------------------------------------| 

   A 
e|-------------------------------------| 
B|-2-2-2-2--2-2-2-2--2-2-2-2--2-2-2-2--| 
G|-2-2-2-2--2-2-2-2--2-2-2-2--2-2-2-2--| 
D|-2-2-2-2--2-2-2-2--2-2-2-2--2-2-2-2--| 
A|-0-0-0-0--0-0-0-0--0-0-0-0--0-0-0-0--| 
E|-------------------------------------| 


Interlude: bass, keyboard and drums 


Verse 

   G 
e|-3-3--3-3--3-3--3-3-3--| 
B|-3-3--3-3--3-3--3-3-3--| 
G|-4-4--3h4--4-4--3h4p3--| 
D|-5-5--3h5--4-4--3h5p3--| 3x 
A|-5-5--3h5--5-5--3h5p3--| 
E|-3-3--3-3--3-3--3-3-3--| 

e|-3-3--3-3--3--3-3-3--| 
B|-3-3--3-3--3--3-3-3--| 
G|-4-4--3h4--4--4-4-4--| 
D|-5-5--3h5--5--5-5-5--| 
A|-5-5--3h5--5--5-5-5--| 
E|-3-3--3-3--3--3-3-3--| 

   F 
e|-1--1---1-1---1--1---1-1---1--1---1-1---1--1--| 
B|-1--1---1-1---1--1---1-1---1--1---1-1---1--1--| 
G|-2--2---2-2---2--2---2-2---2--2---2-2---2--2--| 
D|-3--3---3-3---3--3---3-3---3--3---3-3---3--3--| 
A|-3--3---3-3---3--3---3-3---3--3---3-3---3--3--| 
E|-1--1---1-1---1--1---1-1---1--1---1-1---1--1--| 

   G 
e|-3-3--3-3--3-3--3-3-3--| 
B|-3-3--3-3--3-3--3-3-3--| 
G|-4-4--3h4--4-4--3h4p3--| 
D|-5-5--3h5--4-4--3h5p3--| 3x  (with Guitar 2 Riff 1) 
A|-5-5--3h5--5-5--3h5p3--| 
E|-3-3--3-3--3-3--3-3-3--| 

e|-3-3--3-3--3--3-3-3--| 
B|-3-3--3-3--3--3-3-3--| 
G|-4-4--3h4--4--4-4-4--| 
D|-5-5--3h5--5--5-5-5--| 
A|-5-5--3h5--5--5-5-5--| 
E|-3-3--3-3--3--3-3-3--| 

   F 
e|-1--1---1-1---1--1---1-1---1--1---1-1---1--1--| 
B|-1--1---1-1---1--1---1-1---1--1---1-1---1--1--| 
G|-2--2---2-2---2--2---2-2---2--2---2-2---2--2--| 
D|-3--3---3-3---3--3---3-3---3--3---3-3---3--3--| 
A|-3--3---3-3---3--3---3-3---3--3---3-3---3--3--| 
E|-1--1---1-1---1--1---1-1---1--1---1-1---1--1--| 


Outro 

   F 
e|-1-1-1-1--|| 
B|-1-1-1-1--|| 
G|-2-2-2-2--|| 
D|-3-3-3-3--|| 12x  (with Guitar 2 Riff 2) 
A|-3-3-3-3--|| 
E|-1-1-1-1--|| 

=============================================================== 

Guitar 2 Riff 1 


e|-15--15---13h15---15--15---13h15p13--| 
B|-------------------------------------| 
G|-------------------------------------| 
D|-------------------------------------| 3x 
A|-------------------------------------| 
E|-------------------------------------| 

e|-15--15---13h15---15--15---13h15p13-15\\\\\\\\\\--| 
B|--------------------------------------------------| 
G|--------------------------------------------------| 
D|--------------------------------------------------| 
A|--------------------------------------------------| 
E|--------------------------------------------------| 

Guitar 2 Riff 2 

e|----------------------------------------|| 
B|----------------------------------------|| 
G|----------------------------------------|| 
D|----------------------------------------|| 
A|-6-5-3-5--6-5-3-5--6-5-3-5--6-5-3-5--6--|| 
E|----------------------------------------|| 


************************************ 

| h   Hammer-on 
| p   Pull-off 
| \   Slide back 

************************************ 
		  

Full key step upFull key step up
Half key step upHalf key step up
Half key step downHalf key step down
Full key step downFull key step down
hide glossary

See also:

tabs Yes - Roundabout tabs Dire Straits - Sultans of Swing tabs Deep Purple - Smoke On The Water (Easy Intro) tabs The Shadows - Apache tabs The Beatles - And i love her(guitar full version) tabs Eric Clapton - Layla
e-chords

Other versions:

tabs The Pretenders - The Phone Call
auto scroll beats size up size down change color hide chords drawings
tab show chords e-chords YouTube Clip e-chords hide all tabs e-chords go to top tab

share