The Pop's

Driving Guitars

The Pop's

tabs

by  PAULLET3

save to print version add songbook text version e-mail correct tuner
chordsukulelecavacokeyboardtabbassdrumsharmonicaflute Guitar Pro
close

there isn't a video lesson for this song

chords

Driving Guitars

	  		(Intro) 


 
     E 
E|---------------------------------|---------------------------------| 
B|---------------------------------|---------------------------------| 
G|---------------------------------|---------------------------------| 
D|---------------------------------|---------------------------------| 
A|---------------------------------|---------------------------------| 
E|-0-------0---0-------0---0---0---|-0-------0---0-------0---1---2---| 
 



 
    G 
E|---------------------------------|---------------------------------| 
B|---------------------------------|---------------------------------| 
G|---------------------------------|---------------------------------| 
D|---------------------------------|---------------------------------| 
A|---------------------------------|---------------------------------| 
E|-3-------3---3-------3---3---3---|-3-------3---3-------3---2---1---| 
 



 
     E 
E|---------------------------------|---------------------------------| 
B|---------------------------------|---------------------------------| 
G|---------------------------------|---------------------------------| 
D|---------------------------------|---------------------------------| 
A|---------------------------------|---------------------------------| 
E|-0-------0---0-------0---0---0---|-0-------0---0-------0---1---2---| 
 



 
     G                                     B 
E|---------------------------------|---------------------------------| 
B|---------------------------------|---------------------------------| 
G|---------------------------------|---------------------------------| 
D|---------------------------------|---------------------------------| 
A|---------------------------------|-----2---2---2---2---2---2-------| 
E|-3-------3---3-------3---3-------|---------------------------------| 
 


(Verse) 

 
     E 
E|---------------------------------|---------------------------------| 
B|---------7b9-----7b9-7---5-------|-5-------5---7b9-----7---5-------| 
G|-----------------------------6---|-----6-----------------------6---| 
D|---------------------------------|---------------------------------| 
A|---------------------------------|---------------------------------| 
E|-0-------------------------------|---------------------------------| 
 



 
     C#m 
E|-7b9-----9-------7-----------7b9-|-----9---7-------7-/-9---7-------| 
B|---------------------9-----------|-------------9---------------9---| 
G|---------------------------------|---------------------------------| 
D|---------------------------------|---------------------------------| 
A|---------------------------------|---------------------------------| 
E|---------------------------------|---------------------------------| 
 



 
     E 
E|---------------------------------|---------------------------------| 
B|-7b9-----7b9-----7---5-----------|-5-------------------------------| 
G|-------------------------6---4---|---------6---4-------------------| 
D|---------------------------------|-----------------6---4-----------| 
A|---------------------------------|-------------------------7---4---| 
E|---------------------------------|---------------------------------| 
 



 
     C#m 
E|---------------------------------|---------------------------------| 
B|---------------------------------|---------------------------------| 
G|---------------------------------|---------------------------------| 
D|---------4b6-----4---------------|---------4b6-----4---------------| 
A|-7-------------------7---4-------|-7-------------------7---4-------| 
E|-----------------------------7---|-----------------------------7---| 
 



 
     A 
E|---------------------------------|---------------------------------| 
B|---------------------------------|---------------------------------| 
G|---------------------------------|---------------------------------| 
D|---------------------------------|---------------------------------| 
A|---------------------------------|---------------------------------| 
E|-5-------5---5-------0---3---4---|-5-------5---5-------4---5---6---| 
 



 
    B 
E|---------------------------------|---------------------------------| 
B|---------------------------------|-----5---------------------------| 
G|---------------------------------|---------7---4-------------------| 
D|---------------------------------|-----------------9-p-7---7---6---| 
A|---------------------------------|---------------------------------| 
E|-7-------7---7-------7---7---7---|-7-------------------------------| 
 



 
     E                                 G 
E|---------------------------------|---------------------------------| 
B|---------------------------------|---------------------------------| 
G|---------------------------------|---------------------------------| 
D|---------------------------------|---------------------------------| 
A|---------------------------------|---------------------------------| 
E|-0-------0---0-------0---1---2---|-3-------3---3-------3---2---1---| 
 



 
     E                                     B 
E|---------------------------------|---------------------------------| 
B|---------------------------------|---------------------------------| 
G|---------------------------------|---------------------------------| 
D|---------------------------------|---------------------------------| 
A|---------------------------------|-----2---2---2---2---2---2-------| 
E|-0-------0---0-------0---0-------|---------------------------------| 
 


(Verse) 

 
E|---------------/-12------12------|-9-------------------------------| 
B|-9-------12----------------------|-----12--9-----------------------| 
G|---------------------------------|-------------11--9-------9-------| 
D|---------------------------------|---------------------11----------| 
A|---------------------------------|---------------------------------| 
E|---------------------------------|---------------------------------| 
 



 
E|---------------------------------|---------------------------------| 
B|-7b9-------------7---5-----------|-5-------------------------------| 
G|-------------------------6---4---|---------6---4-------------------| 
D|---------------------------------|-----------------6---4-----------| 
A|---------------------------------|-------------------------7---4---| 
E|---------------------------------|---------------------------------| 
 



 
E|---------------------------------|---------------------------------| 
B|---------------------------------|-5---------------5-----------5---| 
G|-------------------------6-------|---------6---4-------6---4-------| 
D|-----------------4b6-------------|---------------------------------| 
A|-7-------7---7-------------------|---------------------------------| 
E|---------------------------------|---------------------------------| 
 



 
E|---------------------------------|---------------------------------| 
B|---------------------------------|-5---------------5---------------| 
G|-6-------6-------4/6-----4/6-----|---------6---4-------6---4-------| 
D|---------------------------------|---------------------------------| 
A|---------------------------------|---------------------------------| 
E|---------------------------------|---------------------------------| 
 



 
E|---------------------------------|---------------------------------| 
B|---------------------------------|---------------------------------| 
G|---------------------------------|---------------------------------| 
D|---------------------------------|---------------------------------| 
A|---------------------------------|---------------------------------| 
E|-5-------5---5-------0---3---4---|-5-------5---5-------4---5---6---| 
 



 
E|---------------------------------|---------------------------------| 
B|---------------------------------|-----5---------------------------| 
G|---------------------------------|---------7---4-------------------| 
D|---------------------------------|-----------------9-p-7---7---6---| 
A|---------------------------------|---------------------------------| 
E|-7-------7-------7-------7-------|---------------------------------| 
 



 
E|---------------------------------|---------------------------------| 
B|---------------------------------|---------------------------------| 
G|---------------------------------|---------------------------------| 
D|---------------------------------|---------------------------------| 
A|---------------------------------|---------------------------------| 
E|-0-------0---0-------0---1---2---|-3-------3---3-------3---2---1---| 
 



 
E|---------------------------------|---------------------------------| 
B|---------------------------------|---------------------------------| 
G|---------------------------------|---------------------------------| 
D|---------------------------------|---------------------------------| 
A|---------------------------------|---------------------------------| 
E|-0-------0---0-------0---0---0---|-0-------0---0---0---0---0-------| 
 


(bridge) 

 
     A 
E|-5-------3-----------------------|---------------------------------| 
B|-----------------5---------------|---------------------------------| 
G|-------------------------6-------|-4-------2-----------------------| 
D|---------------------------------|-----------------4-------2-------| 
A|---------------------------------|---------------------------------| 
E|---------------------------------|---------------------------------| 
 



 
     E 
E|---------------------------------|---------------------------------| 
B|---------------------------------|---------------------------------| 
G|---------------------------------|---------------------------------| 
D|-----------------------------2---|-4b6-----4-----------------------| 
A|-----------------2---2---4-------|-----------------7---4-----------| 
E|-----0---3---4-------------------|-------------------------7---4---| 
 



 
     A 
E|---------3---3-------------------|---------------------------------| 
B|-----------------5---5-----------|---------------------------------| 
G|-------------------------6---6---|-4---4---2---2-------------------| 
D|---------------------------------|-----------------4---4---2---2---| 
A|---------------------------------|---------------------------------| 
E|-5-------------------------------|---------------------------------| 
 



 
     B                                 D 
E|---------------------------------|---------------------------------| 
B|---------------------------------|---------------------------------| 
G|---------------------------------|---------------------------------| 
D|---------------------------------|---------------------------------| 
A|---------------------------------|-5-------4-------3-------2-------| 
E|-7-------7---7-------7---8---9---|---------------------------------| 
 


(Verse) 

 
E|---------------------------------|---------------------------------| 
B|---------7b9-----7b9-7---5-------|-5-------5---7b9-----7---5-------| 
G|-----------------------------6---|-----6-----------------------6---| 
D|---------------------------------|---------------------------------| 
A|---------------------------------|---------------------------------| 
E|---------------------------------|---------------------------------| 
 



 
E|---------------------------------|---------------------------------| 
B|-5-------------------------------|-----------------5---------------| 
G|---------6---4-----------4---6---|-4/6-----4/6-------------6-------| 
D|-----------------6---------------|---------------------------------| 
A|---------------------------------|---------------------------------| 
E|---------------------------------|---------------------------------| 
 



 
E|---------7-----------------------|-7b9-----7-----------------------| 
B|-7b9-----------------------------|-----------------9---7---5-------| 
G|---------------------------------|-----------------------------6---| 
D|---------------------------------|---------------------------------| 
A|---------------------------------|---------------------------------| 
E|---------------------------------|---------------------------------| 
 



 
E|---------------------------------|---------------------------------| 
B|-7b9-------------7---5-----------|-5-------------------------------| 
G|-------------------------6---4---|---------6---4-------------------| 
D|---------------------------------|-----------------6---4-----------| 
A|---------------------------------|-------------------------7---4---| 
E|---------------------------------|---------------------------------| 
 



 
E|---------------------------------|---------------------------------| 
B|---------------------------------|---------------------------------| 
G|---------------------------------|---------------------------------| 
D|---------------------------------|---------------------------------| 
A|---------------------------------|---------------------------------| 
E|-5-------5---5-------0---3---4---|-5-------5---5-------4---5---6---| 
 



 
E|---------------------------------|---------------------------------| 
B|---------------------------------|---------------------------------| 
G|---------------------------------|---------------------------------| 
D|---------------------------------|---------------------------------| 
A|---------------------------------|---------------------------------| 
E|-7-------7---7---7-------7-------|-7-------0w----------------------| 
 


(outro) 

 
E|---------------------------------|---------------------------------| 
B|---------------------------------|---------------------------------| 
G|---------------------------------|---------------------------------| 
D|---------------------------------|---------------------------------| 
A|---------------------------------|---------------------------------| 
E|-0-------0---0-------0---0---0---|-0-------0---0-------0---1---2---| 
 



 
E|---------------------------------|---------------------------------| 
B|---------------------------------|---------------------------------| 
G|---------------------------------|---------------------------------| 
D|---------------------------------|---------------------------------| 
A|---------------------------------|---------------------------------| 
E|-3-------3---3-------3---3---3---|-3-------3---3-------3---2---1---| 
 



 
E|---------------------------------|---------------------------------| 
B|---------------------------------|---------------------------------| 
G|---------------------------------|---------------------------------| 
D|---------------------------------|---------------------------------| 
A|---------------------------------|---------------------------------| 
E|-0-------0---0-------0---0---0---|-0-------0---0-------0---1---2---| 
 


E|---------------------------------|---------------------------------| 
B|---------------------------------|---------------------------------| 
G|---------------------------------|---------------------------------| 
D|---------------------------------|---------------------------------| 
A|---------------------------------|---------------------------------| 
E|-3-------3---3-------3---3---3---|-3-------3---3-------3---2---1---| 
		  

Full key step upFull key step up
Half key step upHalf key step up
Half key step downHalf key step down
Full key step downFull key step down
hide glossary

See also:

tabs Ira! - Envelheço na Cidade tabs Deep Purple - Smoke On Water tabs Ira! - Inundação de Amor tabs Deep Purple - Stormbringer tabs Deep Purple - Money Talks tabs Ira! - A vida por um fio
e-chords

Other versions:

tabs The Pop's - Driving Guitars
auto scroll beats size up size down change color hide chords drawings
tab show chords e-chords YouTube Clip e-chords hide all tabs e-chords go to top tab

share