The Pop's

Caravan

The Pop's

tabs

by  PAULLET3

save to print version add songbook text version e-mail correct tuner
chordsukulelecavacokeyboardtabbassdrumsharmonicaflute Guitar Pro
close

there isn't a video lesson for this song

chords

Caravan

	  		Caravan 

into 

 
--12-10-7--|--\7-\7-7-5-3-0--|----------------| 
--12-10-7--|--\7-\7-7-5-3-0--|--3---3--3---3--| 
-----------|-----------------|----4------4----| 
-----------|-----------------|----------------| 
-----------|-----------------|----------------| 
-----------|-----------------|----------------| 
 


 
------------------------------11-----------------| 
--11h12p11-12--13-12----10-12--------10-10--9/10-| 
---------------------11----------11--11-11-10/11-| 
-------------------------------------------------| 
-------------------------------------------------| 
-------------------------------------------------| 
 

 
-------------------------------------------| 
-12-12h13-12-13--12-10----10--10-10--9/10--| 
-----------------------11-----11-11-10/11--| 
-------------------------------------------| 
-------------------------------------------| 
-------------------------------------------| 
 

 
--------------------------| 
-11b-10-9-8-7-6-5---3---3-| 
----------------------4---| 
--------------------------| 
--------------------------| 
--------------------------| 
 

 
----12----------------|----------7-----------| 
-------14-12----------|-5-5-7-5----7-5-------| 
-------------11-11-11-|----------------4-4-4-| 
-14-------------------|----------------------| 
----------------------|----------------------| 
----------------------|----------------------| 
 

 
-10--10-------------|---------------------------------------------------| 
-10-----12-10-------|----------12-13p12--12-13p12--12-12-12--13-12--12/-| 
-11-----------9-9-9-|-7-7-9-7-------------------------------------------| 
-12-----------------|---------------------------------------------------| 
-12-----------------|---------------------------------------------------| 
-10-----------------|---------------------------------------------------| 
 

 
-----------------------11----|-11/14-14/11-| 
--0/12--13-12----10-12-------|--play-------| 
--------------11----------11-|--these------| 
-----------------------------|--slides-----| 
-----------------------------|--four-------| 
-----------------------------|--times------| 
 

 
---------------------------|-11/14-14/11-|----------------------|----------| 
--12--13-12-13-12-10----10-|--play-------|--12-11--10-9-8-7-6-5-|-3-2-3----| 
---------------------11----|--these------|----------------------|-------4/-| 
---------------------------|--slides-----|----------------------|----------| 
---------------------------|--four-------|----------------------|----------| 
---------------------------|--times------|----------------------|----------| 
 

 
----------------------------------------| 
----------------------------------------| 
----------------------------------------| 
------1-4-------1-4-------1-4-------1-4-| 
-2--2------2--2------2--2------2--2-----| 
----------------------------------------| 
 

 
----------------------------| 
----------------------------| 
----------------------------| 
------------1---1-1-1-1-1-1-| 
-2--3-----2-----2-2-2-2-2-2-| 
------2-5-----2-2-2-2-2-2-2-| 
 

 
--------------------------------------------------| 
--------------------------------------------3---3-| 
----------------------------------------------4---| 
---------------1-1-1-1-1-1------------------------| 
-2-3-2-3-2-----2-2-2-2-2-2--2-1-0-----------------| 
-----------5-2-2-2-2-2-2-2--------4-3-2-1-0-------| 
 

outro 

 
--12-10-7--|--\7-\7-7-5-3-0--|-------------| 
--12-10-7--|--\7-\7-7-5-3-0--|--3---3/2----| 
-----------|-----------------|----4-0------| 
-----------|-----------------|--repeat-----| 
-----------|-----------------|--three------| 
-----------|-----------------|--times------| 
 

------------------| 
------------------| 
------------------| 
------------------| 
-2-1-0------------| 
-------4-3-2-1-0--| 
		  

See also:

tabs Ira! - Envelheço na Cidade tabs Deep Purple - Smoke On Water tabs Ira! - Inundação de Amor tabs Deep Purple - Stormbringer tabs Deep Purple - Money Talks tabs Ira! - A vida por um fio
e-chords

Other versions:

tabs The Ventures - Caravan tabs The Pop's - Caravan
auto scroll beats size up size down change color hide chords drawings
tab show chords e-chords YouTube Clip e-chords hide all tabs e-chords go to top tab

share