The Pains Of Being Pure At Heart

Heart In Your Heartbreak

The Pains Of Being Pure At Heart

tabs

by  CARLLUZ

save to print version add songbook text version e-mail correct tuner
chordsukulelecavacokeyboardtabbassdrumsharmonicaflute Guitar Pro
close

there isn't a video lesson for this song

chords

Heart In Your Heartbreak

	  		 


INTRO
 
e|-------| 
B|-------| 
G|-------| 
D|-------| 
A|-7-----| 
E|-0-x32-| 

VERSES
 

e|----------------------------------------------| 
B|----------------------------------------------| 
G|-9-----------------------9--------------------| 
D|-9-x16-7-----7-----9-----9-x16-7-----7-----9~-| 
A|-7-----7-x16-7-x16-9-x16-7-----7-x16-7-x16-9~-| 
E|-------5-----4-----7-----------5-----4-----7~-| 

CHORUS
 
Play choruses two times 
e|------------------------------------------| 
B|------------------------------------------| 
G|------9--------------------9--------------| 
D|-7----9-x8-9----4-----7----9-x8-9---------| 
A|-7-x8-7----9-x8-4-x8--7-x8-7----9-x16-----| 
E|-5---------7----2-----5---------7---------| 

BRIDGE PART 1
 
Play this twice 
e|-------------------------------------| 
B|-------------------------------------| 
G|-6------8------9------14------13-----| 
D|-X--x8--X--x8--X--x8--X---x4--X---x4-| 
A|-4------6------7------12------11-----| 
E|-------------------------------------| 
NOTE: There's two guitars in the song and second time through 
instead of -7X9-- the other gutiar plays -14X16-- (I think). 

BRIDGE PART 2
 
You'll have to find the rhythm here. 
e|------------------------------------------| 
B|------------------------------------12----| 
G|-13-13-13-13-13-13-13--13-13--13-14-------| 
D|-X--X--X--X--X--X--X---X--X---------------| 
A|-11-11-11-11-11-11-11--11-11--------------| 
E|------------------------------------------| 

e|------------------------------------------| 
B|------------------------------12----------| 
G|-13-13-13-13-13-13-13--13-13-----14-13----| 
D|-X--X--X--X--X--X--X---X--X---------------| 
A|-11-11-11-11-11-11-11--11-11--------------| 
E|------------------------------------------| 

e|------------------------------------------| 
B|------------------------------------12----| 
G|-13-13-13-13-13-13-13--13-13--13-14-------| 
D|-X--X--X--X--X--X--X---X--X---------------| 
A|-11-11-11-11-11-11-11--11-11--------------| 
E|------------------------------------------| 

e|-------------------------------| 
B|-------------------------------| 
G|-13-13--13-13--11--------9~----| 
D|-13-13--13-13--11-9~~-7~-9~-9~-| 
A|-11-11--11-11--9--9~~-7~-7~-9~-| 
E|------------------7~~-5~----7~-| 

REST OF THE SONG 
e|---------------------| 
B|---------------------| 
G|------9--------------| 
D|-7----9-x8-9---------| 
A|-7-x8-7----9-x16-----| 
E|-5---------7---------| 
 
		  

auto scroll beats size up size down change color hide chords drawings
tab show chords e-chords YouTube Clip e-chords hide all tabs e-chords go to top tab

share