The Offspring

home > The Offspring

Rage against myself (ver. 2) Tab

The Offspring

Difficulty: nolevelnolevel

by Neo+Amstrong

tuner correct add songbook print version text version save to e-mail
chordsukulelecavacokeyboardtabbassdrumsharmonicsflute Guitar Pro
chords

Rage against myself (ver. 2)

  		Offspring  
Race Against Myself  
 
Introdução:  
 
F#m5    D5       A5        E5  
e|-----------------------------------|  
B|-6/7--7-5/7--7-9-9/10--10-9/5-55-5-|  
G|-----------------------------------|   3X  
D|-----------------------------------|  
A|-----------------------------------|  
E|-----------------------------------|  
 
F#m5      D5    A5      E5  
e|----------------99-10-9-7-9-7-5-4--|  
B|-6/7--7/5/3--3---------------------|  
G|-----------------------------------|   1X no final  
D|-----------------------------------|  
A|-----------------------------------|  
E|-----------------------------------|  
 
Após a Introdução e o Refrão, repete 2x  
 
  F#m5           E5  
e|-------------------------------|  
B|-------------------------------|  
G|-------------------------------|  2X  
D|-----4--4--4--4-----2--2--2--2-|  
A|-44-x4-x4-x4-x4/22-x2-x2-x2-x2-|  
E|-22-x2-x2-x2-x2/00-00-00-00-00-|  
 
 
F#m5   E5  
 
(I realise)  
F#m5  
All I want  
       E5  
All I need  
                         F#m5  
Always lies just out of reach  
                     E5  
I've been coming up empty  
 
(I realise)  
F#m5                    E5  
I ran as fast as I can run  
                      F#m5  
I pushed as hard as anyone  
                          E5  
But still there's nothing for me  
 
Refrão
-====- 
 
      F#m5  
(And I want)  
    D5        A5       E5  
I've tried as hard as I can  
      F#m5  
(And I need)  
    D5      A5      E5  
I've taken all I can stand  
      F#m5  
(And I fall)  
   D5     A5      E5  
But I am running a race  
F#m5    D5  
Against myself  
A5      E5  
Against myself  
 
yeah  
 
F#m5   E5  
 
(I realise)  
F#m5                  E5  
Running out, struggle on  
                  F#m5  
Am I sorrow as my song  
                      E5  
My whole world is half parted  
 
(I realise)  
F#m5               E5  
For my pain I have none  
                     F#m5  
After all is said and done  
                    E5  
Now I'm back where I started  
 
Refrão
-====- 
 
      F#m5  
(And I want)  
    D5       A5      E5  
I've tried as hard as I can  
      F#m5  
(And I need)  
    D5     A5       E5  
I've taken all I can stand  
      F#m5  
(And I fall)  
   D5    A5       E5  
But I am running a race  
   F#m5  D5  
Against myself  
   A5    E5  
Against myself  
 
yeah  
 
Depois que repete o Refrão pela 2X  
usar esta Tab.  
 
e|-----------------------------|  
B|-----------------------------|  
G|-----------------------------|  4X  
D|-----4--4--4-----4--4--4-7-9-|  
A|-44-x4-x4-x4-44-x4-x4-x4-7-9-|  
E|-22-x2-x2-x2-22-x2-x2-x2-5-7-|  
 
Refrão
-====- 
 
      F#m5  
(And I want)  
    D5       A5      E5  
I've tried as hard as I can  
      F#m5  
(And I need)  
    D5     A5       E5  
I've taken all I can stand  
      F#m5  
(And I fall)  
   D5    A5       E5  
But I am running a race  
   F#m5  D5  
Against myself  
   A5    E5  
Against myself  
 
yeah  
 
Final:  F#m  
 
Feito por Diego Amstrong ([email protected])  
e Jimmy Amstrong  
	  

Full key step upFull key step up
Half key step upHalf key step up
Half key step downHalf key step down
Full key step downFull key step down
Search Paypal
auto scroll beats size up size down change color hide chords drawings
tab show chords e-chords YouTube Clip e-chords hide all tabs e-chords go to top tab