The Nightwatchman

The Fifth Horseman Of The Apocalypse

The Nightwatchman

tabs

by  GUSTSILVA

save to print version add songbook text version e-mail correct tuner
chordsukulelecavacokeyboardtabbassdrumsharmonicaflute Guitar Pro
close

there isn't a video lesson for this song

chords

The Fifth Horseman Of The Apocalypse

	  		

                             Played behind the violins 
eb--------------------------------------------------------------------------| 
Bb--------------------------------------------------------------------------| 
Gb-----5--5---555---555----8--8--888--888---13--13--13-13-13--13-13-13------| 
Db-----5--5---555---555----8--8--888--888---13--13--13-13-13--13-13-13------| 
Ab-----3--3---333---333----6--6--666--666---11--11--11-11-11--11-11-11------| 
Eb--------------------------------------------------------------------------| 


eb-------------------------------------------------------------------------| 
Bb-------------------------------------------------------------------------| 
Gb-----12---12--12-12-12--12-12-12---5--5--555-5558-----8---888--888-------| 
Db-----12---12--12-12-12--12-12-12---5--5--555-5558-----8---888--888-------| 
Ab-----10---10--10-10-10--10-10-10---3--3--333-3336-----6---666--666-------| 
Eb-------------------------------------------------------------------------| 


eb--------------------------------------------------------------------------| 
Bb--------------------------------------------------------------------------| 
Gb-----13--13--13-13-13------------------------------------10--10--10-10-10-| 
Db-----13--13--13-13-13-----13---13--13-13-13---13-13-13---10--10--10-10-10-| 
Ab-----11--11--11-11-11-----13---13--13-13-13---13-13-13---8---8---8--8--8--| 
Eb--------------------------11---11--11-11-11---11-11-11--------------------| 


eb-------------| 
Bb-------------| 
Gb---10-10-10--| 
Db---10-10-10--| 
Ab---8--8--8---| 
Eb-------------| 
              end of intro 

              verse 
eb------------------------------------------------------------------------| 
Bb------------------------------------------------------------------------| 
Gb-------------------5-----------------5----------------------------------| 
Db--------3h5--5---5-------3h5--5---5--------3h5--5---5-8-------------0-3-| 
Ab------3--------3-------3--------3--------6--------6-------1--3h5-5-1----| 
Eb------------------------------------------------------------------------| 
                                       x2 

chorus 
same chords as in the verse listen to get the   strumming pattern 
eb-----------------------------------------------------------------------| 
Bb-----------------------------------------------------------------------| 
Gb--55555555555555555555555555555555-7777777777777777-3333333333333333---| 
Db--55555555555555555555555555555555-7777777777777777-3333333333333333---| 
Ab--33333333333333333333333333333333-6666666666666666-1111111111111111---| 
Eb-----------------------------------------------------------------------| 



eb-------------------| 
Bb-------------------| 
Gb--5~-----3~--------| 
Db--5~-----3~--------| 
Ad--3~-----1~--------| 
Eb-------------------| 
     END CHORUS 

 
		  

See also:

tabs Jack Johnson - Good People tabs Rage Against The Machine - Killing In The Name (ver. 2) tabs Blue Oyster Cult - Dont Fear The Reaper tabs R.E.M. - Losing my religion tabs Smashing Pumpkins - Today tabs Foo Fighters - Learn to Fly (acoustic version)
e-chords

Other versions:

tabs The Nightwatchman - The Fifth Horseman Of The Apocalypse
auto scroll beats size up size down change color hide chords drawings
tab show chords e-chords YouTube Clip e-chords hide all tabs e-chords go to top tab

share