The Neighbourhood

Baby Came Home

The Neighbourhood

tabs

by  CARLLUZ

save to print version add songbook text version e-mail correct tuner
chordsukulelecavacokeyboardtabbassdrumsharmonicaflute Guitar Pro
close

there isn't a video lesson for this song

chords

Baby Came Home

	  		

Intro/Verse 

'Baby came home today...' 

E|------------------------------------------| 
B|---10---10--10\8-8-8-8---8-8\6-6-6-6/10---| 
G|----------------------------------7-------| 
D|------------------------------------------| 
A|------------------------------------------| 
E|---10-10--10------8-8\7-7-7-----6---------| 

'Thinking about her...' 

E|------------------------------------------|                  
B|------------------------------------------| 
G|------------------------------------------| 
D|------------------------------------------| 
A|------------------------------------------| 
E|---1-3-4-5---1-3-4-5---1-3-4-5---5-3-1----| 

Bridge  

'She's mine...' 

E|---5-5---3-3---3-3---6-6---| 
B|---6-6---5-5---3-3---6-6---| 
G|---7-7---5-5---4-4---7-7---| 
D|---7-7---5-5---5-5---8-8---| (Repeat) 
A|---5-5---3-3---5-5---8-8---| 
E|---------------3-3---6-6---| 

Outro is the same as the intro.  
		  

auto scroll beats size up size down change color hide chords drawings
tab show chords e-chords YouTube Clip e-chords hide all tabs e-chords go to top tab

share