The National

Racing Like A Pro

The National

tabs

by  JOV-CORREA

save to print version add songbook text version e-mail correct tuner
chordsukulelecavacokeyboardtabbassdrumsharmonicaflute Guitar Pro
close

there isn't a video lesson for this song

chords

Racing Like A Pro

	  		
 

Intro/Verses/Outro 
e-----------------------------------------------------------------| 
B-----3-------3-------3-------3-------3-------3-------3-------3---| 
G-----------------------------------------------------------------| 
D--0------0-------0-------0-------0-------0-------0-------0-------| 
A---2-------2-------0-------0-------------------------------------| 
E-----------------------------------3-------3-------3-------3-----| 


Chorus 
e---------------------------------------------------------| 
B-----0------0------0------0------------------------------| 
G---------------------------------0------0------0------0--| 
D--0------0------0------0---------------------------------| 
A------------------------------2------2------2------2-----| 
E----3------3------2------2------0------0------0------0---| x3 

e---------------------------------------------------------| 
B-----0------0------0------0------------------------------| 
G---------------------------------3------3------3------3--| 
D--0------0------0------0---------------------------2-----| 
A------------------------------4------4------4--------2---| 
E----3------3------3------3------2------2------2----------| x1 


 
		  

See also:

tabs Red Hot Chili Peppers - By The Way (ver. 2) tabs Red Hot Chili Peppers - Scar Tissue (All Solos) tabs Good Charlotte - Lifestyles of the Rich and Famous tabs Tonic - If You Could Only See tabs Red Hot Chili Peppers - Don't Forget Me tabs Paramore - The Only Exception
e-chords

Other versions:

tabs The National - Racing Like A Pro
auto scroll beats size up size down change color hide chords drawings
tab show chords e-chords YouTube Clip e-chords hide all tabs e-chords go to top tab

share