save to print version add songbook text version e-mail correct tuner
chordsukulelecavacokeyboardtabbassdrumsharmonicaflute Guitar Pro
close

there isn't a video lesson for this song

chords

No Way

	  		E|-----------------|----------------| 
B|-----------------|----------------| 
G|-----------------|----------------| 
D|--0-0-0-0-0-0-0-0|-0-0-0-0-0-0-0-0|  x5 
A|-----------------|----------------| 
E|-3-3-3-3-5-5-5-5-|2-2-2-2-2-2-2-2-| 

E|-----------------|----------------| 
B|-----------------|----------------| 
G|-----------------|----------------| 
D|--0-0-0-0-0-0-0-0|-0-0-0-0-0-0-0-0| 
A|-----------------|----------------| 
E|-3-3-3-3-5-5-5-5-|7-7-7-7-7-7-7-5-| 

E|-----------------|------------------| 
B|-----------------|------------------| 
G|-----------------|------------------| 
D|--0-0-0-0-0-0-0-0|--0--0-0-0-0-0-0-0| 
A|-----------------|------------------| 
E|-3-3-3-3-5-5-5-5-|10-10-9-9-7-7-5-5-| 

E|-----------------| 
B|-----------------| 
G|-----------------| 
D|--0-0-0-0-0-0-0-0| 
A|-----------------| 
E|-3-3-3-3-5-5-5-5-| 


E|------------------|-------------------| 
B|------------------|-------------------| 
G|------------------|-------------------| 
D|---0---0-------0--|----0---0-------0--| 
A|------------------|-------------------| 
E|-10--10--10-10--10|-10---10--10-10--10| 


E|------------------|---------------x-x-| 
B|------------------|---------------x-x-| 
G|------------------|---------------x-x-| 
D|---0---0-------0--|----0---0----0-x-x-| 
A|------------------|---------------x-x-| 
E|-10--10--10-10--10|-10---10--10---x-x-| 
		  

auto scroll beats size up size down change color hide chords drawings
tab show chords e-chords YouTube Clip e-chords hide all tabs e-chords go to top tab

share