The Megas

Promise Of Redemption

The Megas

tabs

by  BOMBAXXX

save to print version add songbook text version e-mail correct tuner
chordsukulelecavacokeyboardtabbassdrumsharmonicaflute Guitar Pro
close

there isn't a video lesson for this song

chords

Promise Of Redemption

	  		
Main Backround 
-----------------------------------------------| 
-----------------------------------------------| 
-----------------------------------------------| 
-5--5---5-----5--5-----3--3---3-----3--3-------| 
--6---6--6--6---6-------5---5--5--5---5--------| 
-----------------------------------------------| 

Main Riff 
------------------------------------------------| 
------------------------------------------------| 
----------------------------00---00-------------| 
-5---6--8--5-----3---3-5-3----------------------| 
------------------------------------------------| 
------------------------------------------------| 

Chorus (Guitar 1) 
--------------------------------------------------------------------------------------------------| 
--------------------------------------------------------------------------------------------------| 
--------------------------------------------------------------------------------------------------| 
---10---8--8---6---8--8----6------8---------------------------------------------------------------| 
---10---8--8---6---8--8----6------8---------------------------------------------------------------| 
---8----6--6---4---6--6----4(x8)--6(x8)-----------------------------------------------------------| 

Chorus (Guitar 2) 
--------------------------------------------------------------------------------------------------| 
--------------------------------------------------------------------------------------------------| 
---12---10-10--8---10-10--------------------------------------------------------------------------| 
---10---8--8---6---8--8---------------------------------------------------------------------------| 
---10---8--8---6---8--8---------------------------------------------------------------------------| 
--------------------------------------------------------------------------------------------------| 

Post-Chorus (Guitar 1) 
----------------------------------------------------------------------------------13-15-----------| 
---------------------------11-9-------------------------------------11-9---12--15-----------------| 
--8--77-5-77--5-7-8--12-10------12-10-8-7---8-77-5-77--5-7-8--12-10------12-----------------------| 
--------------------------------------------------------------------------------------------------| 
--------------------------------------------------------------------------------------------------| 
--------------------------------------------------------------------------------------------------| 

Post-Chorus (Guitar 2) play on bass during Chorus 
------------------------------------------------| 
------------------------------------------------| 
------------------------------------------------|      (x2) 
------------------------------------------------| 
--5-6-5-3---------------------------------------| 
----------6--4-66---4(x8)--6(x8)----------------| 

Solo 
--------------------------------------------------------------------------------------------------| 
---------------------------------------------11--9-----------------11-9---------13-12-----12--15--| 
----88888--10--12--10--8--8h10--7-8-7--5--3---------12---12-10-8--------12---12---------12--------| 
--------------------------------------------------------------------------------------------------| 
--------------------------------------------------------------------------------------------------| 
--------------------------------------------------------------------------------------------------| 
		  

See also:

tabs Deep Purple - Perfect Strangers tabs Deep Purple - Smoke on the water (intro) tabs Ira! - Nucleo De Base tabs Deep Purple - Smoke on the Water (solo) tabs Ira! - Flerte Fatal (intro e solo) tabs Deep Purple - Smoke On The Water
e-chords

Other versions:

tabs The Megas - Promise Of Redemption
auto scroll beats size up size down change color hide chords drawings
tab show chords e-chords YouTube Clip e-chords hide all tabs e-chords go to top tab

share