The Mamas and the Papas

I Saw Her Again

The Mamas and the Papas

tabs

by  TAMAMOREIRA

save to print version add songbook text version e-mail correct tuner
chordsukulelecavacokeyboardtabbassdrumsharmonicaflute Guitar Pro
close

there isn't a video lesson for this song

chords

I Saw Her Again

	  		Gtr I (E A D G B E) - 'Tommy Tedesco - Electric Guitar' 


 Intro                     1st - 3rd Verses 
  Q=122 
                        $ 
  D/E                       A      A7   D 
 4/4 
  Gtr I 
  W          +W             E E Q  E Q  E 
|----------|------------||--0-0-0--0-0--2-| 
|-7--------|-(7)--------||o-2-2-2--2-2--3-| 
|-7--------|-(7)--------||--2-2-2--0-0--2-| 
|-7--------|-(7)--------||--2-2-2--2-2--0-| 
|-7--------|-(7)--------||o-0-0-0--0-0----| 
|----------|------------||----------------| 


          G             A       C#m       Bm    E7          A      A7   D 
  +E  E E E +E  E E E   E E E E E E E E   E E E E +Q   Q    E E Q  E Q  E 
|-(2)-2-2-3-(3)-3-3-3-|-0-0-0---4-4-4---|-2-2-2-0-(0)-----|-0-0-0--0-0--2--| 
|-(3)-3-3-0-(0)-0-0-0-|-2-2-2---5-5-5---|-3-3-3-0-(0)-----|-2-2-2--2-2--3--| 
|-(2)-2-2-0-(0)-0-0-0-|-2-2-2---6-6-6---|-4-4-4-1-(1)-----|-2-2-2--0-0--2--| 
|-(0)-0-0-0-(0)-0-0-0-|-2-2-2---6-6-6---|-4-4-4-0-(0)-----|-2-2-2--2-2--0--| 
|---------2-(2)-2-2-2-|-0-0-0---4-4-4---|-2-2-2-2-(2)-----|-0-0-0--0-0-----| 
|---------3-(3)-3-3-3-|-----------------|-------0-(0)-----|----------------| 


          G             A       C#m       F#7                 B7 
  +E  E E E +E  E E E   E E E E E E E E   E E E E +E  E E E   Q  E E E E E E 
|-(2)-2-2-3-(3)-3-3-3-|-0-0-0---4-4-4---|-2-2-2-2-(2)-2-2-2-|-2--2---2-2-2----| 
|-(3)-3-3-0-(0)-0-0-0-|-2-2-2---5-5-5---|-2-2-2-2-(2)-2-2-2-|-0--0---0-0-0----| 
|-(2)-2-2-0-(0)-0-0-0-|-2-2-2---6-6-6---|-3-3-3-3-(3)-3-3-3-|-2--2---2-2-2----| 
|-(0)-0-0-0-(0)-0-0-0-|-2-2-2---6-6-6---|-2-2-2-2-(2)-2-2-2-|-1--1---1-1-1----| 
|---------2-(2)-2-2-2-|-0-0-0---4-4-4---|-4-4-4-4-(4)-4-4-4-|-2--2---2-2-2----| 
|---------3-(3)-3-3-3-|-----------------|-2-2-2-2-(2)-2-2-2-|-----------------| 


                                                          To Coda 
  E7               A      C#7      F#m    F6       A 
  Q  E E E E E E   Q  E E Q  E E   Q  E E Q  E E   Q  E E Q  E E 
|-0--0---0-0-0---|-0--0-0--------|-2--2-2-1--1-1-|-0--0-0-0--0-0--| 
|-0--0---0-0-0---|-2--2-2-2--2-2-|-2--2-2-3--3-3-|-2--2-2-2--2-2--| 
|-1--1---1-1-1---|-2--2-2-4--4-4-|-2--2-2-2--2-2-|-2--2-2-2--2-2--| 
|-0--0---0-0-0---|-2--2-2-3--3-3-|-4--4-4-3--3-3-|-2--2-2-2--2-2--| 
|-2--2---2-2-2---|-0--0-0-4--4-4-|-4--4-4--------|-0--0-0-0--0-0--| 
|-0--0---0-0-0---|---------------|-2--2-2--------|----------------| 


                               Bridge 
  1.          2. 
                             $$ 
  D/E          A                G# 
  W            Q  E E Q  E E    E E E E E E E E 
|-----------||-0--0-0-0--0-0-||-4---4---4---4---| 
|-7--------o||-2--2-2-2--2-2-||-4---4---4---4---| 
|-7---------||-2--2-2-2--2-2-||-5---5---5---5---| 
|-7---------||-2--2-2-2--2-2-||-6---6---6---6---| 
|-7--------o||-0--0-0-0--0-0-||-6---6---6---6---| 
|-----------||---------------||-4---4---4---4---| 


                    A#m                                 F# 
  E E E E E E E E   E E E E E E E E   E E E E E E E E   E E E E E E E E 
|-4---4---4---4---|-6---6---6---6---|-6---6---6---6---|-2---2---2---2---| 
|-4---4---4---4---|-6---6---6---6---|-6---6---6---6---|-2---2---2---2---| 
|-5---5---5---5---|-6---6---6---6---|-6---6---6---6---|-3---3---3---3---| 
|-6---6---6---6---|-8---8---8---8---|-8---8---8---8---|-4---4---4---4---| 
|-6---6---6---6---|-8---8---8---8---|-8---8---8---8---|-4---4---4---4---| 
|-4---4---4---4---|-6---6---6---6---|-6---6---6---6---|-2---2---2---2---| 


  G#                B                                   D#m 
  E E E E E E E E   E E E E E E E E   E E E E E E E E   E E E E E E E E 
|-4---4---4---4---|-2---2---2---2---|-2---2---2---2---|-6---6---6---6---| 
|-4---4---4---4---|-4---4---4---4---|-4---4---4---4---|-7---7---7---7---| 
|-5---5---5---5---|-4---4---4---4---|-4---4---4---4---|-8---8---8---8---| 
|-6---6---6---6---|-4---4---4---4---|-4---4---4---4---|-8---8---8---8---| 
|-6---6---6---6---|-2---2---2---2---|-2---2---2---2---|-6---6---6---6---| 
|-4---4---4---4---|-----------------|-----------------|-----------------| 


                        To Dbl. CodaD.S. al Coda 
  G#m               B                  D/E 
  E E E E E E E E   E E E E E E E E    H    +H 
|-4---4---4---4---|-2-2-2-2-2-2-2-2--|-------------|| 
|-4---4---4---4---|-4-4-4-4-4-4-4-4--|-7----(7)----|| 
|-4---4---4---4---|-4-4-4-4-4-4-4-4--|-7----(7)----|| 
|-6---6---6---6---|-4-4-4-4-4-4-4-4--|-7----(7)----|| 
|-6---6---6---6---|-2-2-2-2-2-2-2-2--|-7----(7)----|| 
|-4---4---4---4---|------------------|-------------|| 


             Interlude 
  & 
  D/E         A      A7   D           G             A       C#m 
  W           E E Q  E Q  E   +E  E E E +E  E E E   E E E E E E E E 
|----------||-0-0-0--0-0--2-|-(2)-2-2-3-(3)-3-3-3-|-0-0-0---4-4-4---| 
|-7--------||-2-2-2--2-2--3-|-(3)-3-3-0-(0)-0-0-0-|-2-2-2---5-5-5---| 
|-7--------||-2-2-2--0-0--2-|-(2)-2-2-0-(0)-0-0-0-|-2-2-2---6-6-6---| 
|-7--------||-2-2-2--2-2--0-|-(0)-0-0-0-(0)-0-0-0-|-2-2-2---6-6-6---| 
|-7--------||-0-0-0--0-0----|---------2-(2)-2-2-2-|-0-0-0---4-4-4---| 
|----------||---------------|---------3-(3)-3-3-3-|-----------------| 


  Bm    E7          A      A7   D           G             A       C#m 
  E E E E +Q   Q    E E Q  E Q  E   +E  E E E +E  E E E   E E E E E E E E 
|-2-2-2-0-(0)-----|-0-0-0--0-0--2-|-(2)-2-2-3-(3)-3-3-3-|-0-0-0---4-4-4---| 
|-3-3-3-0-(0)-----|-2-2-2--2-2--3-|-(3)-3-3-0-(0)-0-0-0-|-2-2-2---5-5-5---| 
|-4-4-4-1-(1)-----|-2-2-2--0-0--2-|-(2)-2-2-0-(0)-0-0-0-|-2-2-2---6-6-6---| 
|-4-4-4-0-(0)-----|-2-2-2--2-2--0-|-(0)-0-0-0-(0)-0-0-0-|-2-2-2---6-6-6---| 
|-2-2-2-2-(2)-----|-0-0-0--0-0----|---------2-(2)-2-2-2-|-0-0-0---4-4-4---| 
|-------0-(0)-----|---------------|---------3-(3)-3-3-3-|-----------------| 


  F#7                 B7               E7 
  E E E E +E  E E E   Q  E E E E E E   Q  E E E E E E   Q  E E E E E E 
|-2-2-2-2-(2)-2-2-2-|-2--2---2-2-2---|-0--0---0-0-0---|-0--0---0-0-0---| 
|-2-2-2-2-(2)-2-2-2-|-0--0---0-0-0---|-0--0---0-0-0---|-0--0---0-0-0---| 
|-3-3-3-3-(3)-3-3-3-|-2--2---2-2-2---|-1--1---1-1-1---|-1--1---1-1-1---| 
|-2-2-2-2-(2)-2-2-2-|-1--1---1-1-1---|-0--0---0-0-0---|-0--0---0-0-0---| 
|-4-4-4-4-(4)-4-4-4-|-2--2---2-2-2---|-2--2---2-2-2---|-2--2---2-2-2---| 
|-2-2-2-2-(2)-2-2-2-|----------------|-0--0---0-0-0---|-0--0---0-0-0---| 


                                               D.S.S. al Dbl. Coda 
  A      C#7      F#m    F6       A 
  Q  E E Q  E E   Q  E E Q  E E   Q  E E Q  E E   E E E E E E E E 
|-0--0-0--------|-2--2-2-1--1-1-|-0--0-0-0--0-0-|-0-0-0-0-0-0-0-0---|| 
|-2--2-2-2--2-2-|-2--2-2-3--3-3-|-2--2-2-2--2-2-|-2-2-2-2-2-2-2-2---|| 
|-2--2-2-4--4-4-|-2--2-2-2--2-2-|-2--2-2-2--2-2-|-2-2-2-2-2-2-2-2---|| 
|-2--2-2-3--3-3-|-4--4-4-3--3-3-|-2--2-2-2--2-2-|-2-2-2-2-2-2-2-2---|| 
|-0--0-0-4--4-4-|-4--4-4--------|-0--0-0-0--0-0-|-0-0-0-0-0-0-0-0---|| 
|---------------|-2--2-2--------|---------------|-------------------|| 


                           Outro 
  && 
  D/E                       A      A7   D 
  W          +W             E E Q  E Q  E 
|----------|------------||--0-0-0--0-0--2-| 
|-7--------|-(7)--------||o-2-2-2--2-2--3-| 
|-7--------|-(7)--------||--2-2-2--0-0--2-| 
|-7--------|-(7)--------||--2-2-2--2-2--0-| 
|-7--------|-(7)--------||o-0-0-0--0-0----| 
|----------|------------||----------------| 


          G             A       C#m       Bm    E7 
  +E  E E E +E  E E E   E E E E E E E E   E E E E +Q   Q 
|-(2)-2-2-3-(3)-3-3-3-|-0-0-0---4-4-4---|-2-2-2-0-(0)-----| 
|-(3)-3-3-0-(0)-0-0-0-|-2-2-2---5-5-5---|-3-3-3-0-(0)-----| 
|-(2)-2-2-0-(0)-0-0-0-|-2-2-2---6-6-6---|-4-4-4-1-(1)-----| 
|-(0)-0-0-0-(0)-0-0-0-|-2-2-2---6-6-6---|-4-4-4-0-(0)-----| 
|---------2-(2)-2-2-2-|-0-0-0---4-4-4---|-2-2-2-2-(2)-----| 
|---------3-(3)-3-3-3-|-----------------|-------0-(0)-----| 


  A      A7   D           G             A       C#m       Bm    E7 
  E E Q  E Q  E   +E  E E E +E  E E E   E E E E E E E E   E E E E +Q   Q 
|-0-0-0--0-0--2-|-(2)-2-2-3-(3)-3-3-3-|-0-0-0---4-4-4---|-2-2-2-0-(0)------|| 
|-2-2-2--2-2--3-|-(3)-3-3-0-(0)-0-0-0-|-2-2-2---5-5-5---|-3-3-3-0-(0)-----o|| 
|-2-2-2--0-0--2-|-(2)-2-2-0-(0)-0-0-0-|-2-2-2---6-6-6---|-4-4-4-1-(1)------|| 
|-2-2-2--2-2--0-|-(0)-0-0-0-(0)-0-0-0-|-2-2-2---6-6-6---|-4-4-4-0-(0)------|| 
|-0-0-0--0-0----|---------2-(2)-2-2-2-|-0-0-0---4-4-4---|-2-2-2-2-(2)-----o|| 
|---------------|---------3-(3)-3-3-3-|-----------------|-------0-(0)------|| 
 
		  

Full key step upFull key step up
Half key step upHalf key step up
Half key step downHalf key step down
Full key step downFull key step down
auto scroll beats size up size down change color hide chords drawings
tab show chords e-chords YouTube Clip e-chords hide all tabs e-chords go to top tab

share