The Mamas and the Papas

Dedicated To The One I Love

The Mamas and the Papas

tabs

by  AMAN_CLAUDINO

save to print version add songbook text version e-mail correct tuner
chordsukulelecavacokeyboardtabbassdrumsharmonicaflute Guitar Pro
close

there isn't a video lesson for this song

chords

Dedicated To The One I Love

	  		Gtr I (E A D G B E) - 'Eric Hord - Acoustic Nylon String Guitar' 


 Intro 
  Q=104 
  D7sus4 
 12/8 
  Gtr I (Ac. Nylon String Gtr.) 
  E E E E E E E E E E E E   E E E E E E E E E E E E 
|-------3-----------3-----|-------3-----------3-----|| 
|-----1---1-------1---1---|-----1---1-------1---1---|| 
|---2-------2---2-------2-|---2-------2---2-------2-|| 
|-0-----------0-----------|-0-----------0-----------|| 
|-------------------------|-------------------------|| 
|-------------------------|-------------------------|| 


 1st Verse 
  G           Em 
  E E E E E E E E E E E E 
|-------3-----------0-------| 
|-----3---3-------0---0-----| 
|---4-------4---0-------0---| 
|-5-----------2-------------| 
|---------------------------| 
|---------------------------| 


  C6           D7             G           Em 
  E  E E E E E E  E E E E E   E E E E E E E E E E E E 
|--------0------------2-----|-------3-----------0-----| 
|-1--------1--------1---1---|-----3---3-------0---0---| 
|----2-------2----2-------2-|---4-------4---0-------0-| 
|------2-------0------------|-5-----------2-----------| 
|-3-------------------------|-------------------------| 
|---------------------------|-------------------------| 
  H.           H. 


  C6           D7 
  E  E E E E E E  E E E E E 
|--------0------------2------| 
|-1--------1--------1---1----| 
|----2-------2----2-------2--| 
|------2-------0-------------| 
|-3--------------------------| 
|----------------------------| 
  H.           H. 


  Em          Bm            Am          D7            G 
  E E E E E E E E E E E E   E E E E E E E E E E E E   E E E E E E E E E E E E 
|-------0-----------2-----|-------0-----------2-----|-------3-----3-----3------| 
|-----0---0-------3---3---|---------1-----------1---|-0-------0-----0-----0----| 
|---0-------0---4-------4-|-----2-----2---2-------2-|---0-------0-----0-----0--| 
|-2-----------------------|---2---------0---0-------|-----0--------------------| 
|-------------2-----------|-0-----------------------|--------------------------| 
|-------------------------|-------------------------|--------------------------| 


                            2nd & 4th Verses 
                          $ 
  D7                         G             Am  G/B C           D7 
                                         2:3 2:3 
  E E E E E E E E E E E E    E E E E E E E E E E   E E E E E E E E E E E E 
|-2-2-2-2-2-2-2-2-2-2-2-2-||-3-3-3-3-3-3-3-0-0---|-0-0-0-0-0-0-2-2-2-2-2-2-| 
|-1-1-1-1-1-1-1-1-1-1-1-1-||-3-3-3-3-3-3-3-1-1-0-|-1-1-1-1-1-1-1-1-1-1-1-1-| 
|-2-2-2-2-2-2-2-2-2-2-2-2-||-4-4-4-4-4-4-4-2-2-0-|-0-0-0-0-0-0-2-2-2-2-2-2-| 
|-0-0-0-0-0-0-0-0-0-0-0-0-||-5-5-5-5-5-5-5-2-2-0-|-2-2-2-2-2-2-0-0-0-0-0-0-| 
|-------------------------||-5-5-5-5-5-5-5-0-0-2-|-3-3-3-3-3-3-------------| 
|-------------------------||-3-3-3-3-3-3-3-------|-------------------------| 


  G             Am  G/B D7                        Eb7         G 
              2:3 2:3 
  E E E E E E E E E E   E E E E E E E E E E E E   E E E E E E E E E E E E 
|-3-3-3-3-3-3-3-0-0---|-2-2-2-2-2-2-2-2-2-2-2-2-|-------------3-3-3-3-3-3-| 
|-3-3-3-3-3-3-3-1-1-0-|-1-1-1-1-1-1-1-1-1-1-1-1-|-4-4-4-4-4-4-3-3-3-3-3-3-| 
|-4-4-4-4-4-4-4-2-2-0-|-2-2-2-2-2-2-2-2-2-2-2-2-|-6-6-6-6-6-6-4-4-4-4-4-4-| 
|-5-5-5-5-5-5-5-2-2-0-|-0-0-0-0-0-0-0-0-0-0-0-0-|-5-5-5-5-5-5-5-5-5-5-5-5-| 
|-5-5-5-5-5-5-5-0-0-2-|-------------------------|-6-6-6-6-6-6-5-5-5-5-5-5-| 
|-3-3-3-3-3-3-3-------|-------------------------|-------------3-3-3-3-3-3-| 


                  Bridge 
To Coda 
  D7sus4           G 
  W.               E E E E E E E E E E E E   E E E E E E E E E E E E 
|-3-------------||-3-3-3-3-3-3-3-3-3-3-3-3-|-3-3-3-3-3-3-3-3-3-3-3-3--| 
|-1-------------||-3-3-3-3-3-3-3-3-3-3-3-3-|-3-3-3-3-3-3-3-3-3-3-3-3--| 
|-2-------------||-4-4-4-4-4-4-4-4-4-4-4-4-|-4-4-4-4-4-4-4-4-4-4-4-4--| 
|-0-------------||-5-5-5-5-5-5-5-5-5-5-5-5-|-5-5-5-5-5-5-5-5-5-5-5-5--| 
|---------------||-5-5-5-5-5-5-5-5-5-5-5-5-|-5-5-5-5-5-5-5-5-5-5-5-5--| 
|---------------||-3-3-3-3-3-3-3-3-3-3-3-3-|-3-3-3-3-3-3-3-3-3-3-3-3--| 


  G7                                                  G 
  E E E E E E E E E E E E   E E E E E E E E E E E E   E E E E E E E E E E E E 
|-3-3-3-3-3-3-3-3-3-3-3-3-|-3-3-3-3-3-3-3-3-3-3-3-3-|-3-3-3-3-3-3-3-3-3-3-3-3--| 
|-3-3-3-3-3-3-3-3-3-3-3-3-|-3-3-3-3-3-3-3-3-3-3-3-3-|-3-3-3-3-3-3-3-3-3-3-3-3--| 
|-4-4-4-4-4-4-4-4-4-4-4-4-|-4-4-4-4-4-4-4-4-4-4-4-4-|-4-4-4-4-4-4-4-4-4-4-4-4--| 
|-3-3-3-3-3-3-3-3-3-3-3-3-|-3-3-3-3-3-3-3-3-3-3-3-3-|-5-5-5-5-5-5-5-5-5-5-5-5--| 
|-5-5-5-5-5-5-5-5-5-5-5-5-|-5-5-5-5-5-5-5-5-5-5-5-5-|-5-5-5-5-5-5-5-5-5-5-5-5--| 
|-3-3-3-3-3-3-3-3-3-3-3-3-|-3-3-3-3-3-3-3-3-3-3-3-3-|-3-3-3-3-3-3-3-3-3-3-3-3--| 


                            Am          A7            D7 
  E E E E E E E E E E E E   E E E E E E E E E E E E   E E E E E E E E E E E E 
|-3-3-3-3-3-3-3-3-3-3-3-3-|-0-0-0-0-0-0-0-0-0-0-0-0-|-2-2-2-2-2-2-2-2-2-2-2-2--| 
|-3-3-3-3-3-3-3-3-3-3-3-3-|-1-1-1-1-1-1-2-2-2-2-2-2-|-1-1-1-1-1-1-1-1-1-1-1-1--| 
|-4-4-4-4-4-4-4-4-4-4-4-4-|-2-2-2-2-2-2-0-0-0-0-0-0-|-2-2-2-2-2-2-2-2-2-2-2-2--| 
|-5-5-5-5-5-5-5-5-5-5-5-5-|-2-2-2-2-2-2-2-2-2-2-2-2-|-0-0-0-0-0-0-0-0-0-0-0-0--| 
|-5-5-5-5-5-5-5-5-5-5-5-5-|-0-0-0-0-0-0-0-0-0-0-0-0-|--------------------------| 
|-3-3-3-3-3-3-3-3-3-3-3-3-|-------------------------|--------------------------| 


                            3rd Verse 
                             G             Am  G/B C           D7 
                                         2:3 2:3 
  E E E E E E E E E E E E    E E E E E E E E E E   E E E E E E E E E E E E 
|-2-2-2-2-2-2-2-2-2-2-2-2-||-3-3-3-3-3-3-3-0-0---|-0-0-0-0-0-0-2-2-2-2-2-2-| 
|-1-1-1-1-1-1-1-1-1-1-1-1-||-3-3-3-3-3-3-3-1-1-0-|-1-1-1-1-1-1-1-1-1-1-1-1-| 
|-2-2-2-2-2-2-2-2-2-2-2-2-||-4-4-4-4-4-4-4-2-2-0-|-0-0-0-0-0-0-2-2-2-2-2-2-| 
|-0-0-0-0-0-0-0-0-0-0-0-0-||-5-5-5-5-5-5-5-2-2-0-|-2-2-2-2-2-2-0-0-0-0-0-0-| 
|-------------------------||-5-5-5-5-5-5-5-0-0-2-|-3-3-3-3-3-3-------------| 
|-------------------------||-3-3-3-3-3-3-3-------|-------------------------| 


  G             Am  G/B D7                        Em          Bm 
              2:3 2:3 
  E E E E E E E E E E   E E E E E E E E E E E E   E E E E E E E E E E E E 
|-3-3-3-3-3-3-3-0-0---|-2-2-2-2-2-2-2-2-2-2-2-2-|-0-0-0-0-0-0-2-2-2-2-2-2-| 
|-3-3-3-3-3-3-3-1-1-0-|-1-1-1-1-1-1-1-1-1-1-1-1-|-0-0-0-0-0-0-3-3-3-3-3-3-| 
|-4-4-4-4-4-4-4-2-2-0-|-2-2-2-2-2-2-2-2-2-2-2-2-|-0-0-0-0-0-0-4-4-4-4-4-4-| 
|-5-5-5-5-5-5-5-2-2-0-|-0-0-0-0-0-0-0-0-0-0-0-0-|-2-2-2-2-2-2-4-4-4-4-4-4-| 
|-5-5-5-5-5-5-5-0-0-2-|-------------------------|-2-2-2-2-2-2-2-2-2-2-2-2-| 
|-3-3-3-3-3-3-3-------|-------------------------|-0-0-0-0-0-0-------------| 


                    Bridge 
  D7sus4             Bm   Em   G    C      Bm   C    Bm 
  H.      H.         Q.   Q.   Q.   Q.     Q.   Q.   Q.   Q. 
|-3-------3-------||-2----0----3----0----|-2----0----2----2-----| 
|-1-------1-------||-3----0----3----1----|-3----1----3----3-----| 
|-2-------2-------||-4----0----4----0----|-4----0----4----4-----| 
|-0-------0-------||-4----2----5----2----|-4----2----4----4-----| 
|-----------------||-2----2----5----3----|-2----3----2----2-----| 
|-----------------||------0----3---------|----------------------| 


                                                        D.S. al Coda 
  Eb7                       D7 
  E E E E E E E E E E E E   E E E E E E E E E E E E   E E E Q.   H. 
|-------------------------|-2-2-2-2-2-2-2-2-2-2-2-2-|-2-----------------|| 
|-4-4-4-4-4-4-4-4-4-4-4-4-|-1-1-1-1-1-1-1-1-1-1-1-1-|-1-----------------|| 
|-6-6-6-6-6-6-6-6-6-6-6-6-|-2-2-2-2-2-2-2-2-2-2-2-2-|-2-----------------|| 
|-5-5-5-5-5-5-5-5-5-5-5-5-|-0-0-0-0-0-0-0-0-0-0-0-0-|-0-----------------|| 
|-6-6-6-6-6-6-6-6-6-6-6-6-|-------------------------|-------------------|| 
|-------------------------|-------------------------|-------------------|| 


 Outro 
  & 
  Em                        C 
  E E E E E E E E E E E E   E E E E E E E E E E E E 
|-0-0-0-0-0-0-0-0-0-0-0-0-|-0-0-0-0-0-0-0-0-0-0-0-0-| 
|-0-0-0-0-0-0-0-0-0-0-0-0-|-1-1-1-1-1-1-1-1-1-1-1-1-| 
|-0-0-0-0-0-0-0-0-0-0-0-0-|-0-0-0-0-0-0-0-0-0-0-0-0-| 
|-2-2-2-2-2-2-2-2-2-2-2-2-|-2-2-2-2-2-2-2-2-2-2-2-2-| 
|-2-2-2-2-2-2-2-2-2-2-2-2-|-3-3-3-3-3-3-3-3-3-3-3-3-| 
|-0-0-0-0-0-0-0-0-0-0-0-0-|-------------------------| 


  A                         G 
  E E E E E E E E E E E E   W. 
|-0-0-0-0-0-0-0-0-0-0-0-0-|-3-----*| 
|-2-2-2-2-2-2-2-2-2-2-2-2-|-3-----*| 
|-2-2-2-2-2-2-2-2-2-2-2-2-|-4-----*| 
|-2-2-2-2-2-2-2-2-2-2-2-2-|-5-----*| 
|-0-0-0-0-0-0-0-0-0-0-0-0-|-5-----*| 
|-------------------------|-3-----*| 
 
		  

Full key step upFull key step up
Half key step upHalf key step up
Half key step downHalf key step down
Full key step downFull key step down
auto scroll beats size up size down change color hide chords drawings
tab show chords e-chords YouTube Clip e-chords hide all tabs e-chords go to top tab

share