save to print version add songbook text version e-mail correct tuner
chordsukulelecavacokeyboardtabbassdrumsharmonicaflute Guitar Pro
close

there isn't a video lesson for this song

chords

Let It Go

	  		

verse 1: 
D#|-----------------------------| 
A#|-----------------------------| 
F#|-----------------------------| 
C#|-2-2-2---------2-2-2---------| 
G#|-2-2-2---------2-2-2---------| 
C#|-2-2-2---------2-2-2---------| 


D#|-----------------------------------------------------------------| 
A#|-----------------------------------------------------------------| 
F#|-----------------5-5-5-5-5-5-5-5-7-7-7-7-7-7-7-7-7-7-7-7-7-7-7-7-| 
C#|-2-2-2-2-2-2-2-2-5-5-5-5-5-5-5-5-7-7-7-7-7-7-7-7-7-7-7-7-7-7-7-7-| 
G#|-2-2-2-2-2-2-2-2-3-3-3-3-3-3-3-3-5-5-5-5-5-5-5-5-5-5-5-5-5-5-5-5-| 
C#|-2-2-2-2-2-2-2-2-------------------------------------------------| 
    . . . . . . . . . . . . . . . . . . . . . . . . . . . . . . . . 

D#|---------------------------------| 
A#|---------------------------------| 
F#|-----------------2-2-2-2-2-2-2-2-| 
C#|-2-2-2-2-0-0-0-0-2-2-2-2-2-2-2-2-| 
G#|-2-2-2-2-0-0-0-0-0-0-0-0-0-0-0-0-| 
C#|-2-2-2-2-0-0-0-0-----------------| 


Bridge: 
D#|-----------------------------------------------------------------| 
A#|-----------------------------------------------------------------| 
F#|-7-7-7-7-7-7-7-7-7-7-7-7-7-7-7-7-5-5-5-5-5-5-5-5-5-5-5-5-5-5-5-5-| 
C#|-7-7-7-7-7-7-7-7-7-7-7-7-7-7-7-7-5-5-5-5-5-5-5-5-5-5-5-5-5-5-5-5-|    x2 
G#|-5-5-5-5-5-5-5-5-5-5-5-5-5-5-5-5-3-3-3-3-3-3-3-3-3-3-3-3-3-3-3-3-| 
C#|-----------------------------------------------------------------| 


D#|---------------------------------| 
A#|---------------------------------| 
F#|-5-5-5-5-5-5-5-5-5-5-5-5-5-5-5-5-| 
C#|-5-5-5-5-5-5-5-5-5-5-5-5-5-5-5-5-| 
G#|-3-3-3-3-3-3-3-3-3-3-3-3-3-3-3-3-| 
C#|---------------------------------| 

Chorus: 
D#|-------------------------------------------------------------------| 
A#|-------------------------------------------------------------------| 
F#|-----------------7---7---7---7-------------------5---5---5---5---5-| 
C#|-5---5---5---5---7---7---7---7---2---2---2---2---5---5---5---5---5-| 
G#|-5---5---5---5---5---5---5---5---2---2---2---2---3---3---3---3---3-| 
C#|-5---5---5---5-------------------2---2---2---2---------------------| 


D#|----------------------------------------------------------------------------------------------| 
A#|----------------------------------------------------------------------------------------------| 
F#|-------------7-7-7-7-7-7-7-7-7-7-------------5-5-5-5-5-5-5-5-5-5-4-4-4-4-4-4-3----------2-2-2-| 
C#|-5-5-5-5-5-5-7-7-7-7-7-7-7-7-7-7-2-2-2-2-2-2-5-5-5-5-5-5-5-5-5-5-4-4-4-4-4-4-3----------2-2-2-| 
G#|-5-5-5-5-5-5-5-5-5-5-5-5-5-5-5-5-2-2-2-2-2-2-3-3-3-3-3-3-3-3-3-3-2-2-2-2-2-2-1----------0-0-0-| 
C#|-5-5-5-5-5-5---------------------2-2-2-2-2-2--------------------------------------------------| 


D#|-----------------| 
A#|-----------------| 
F#|-----------------| 
C#|-5-5-5-5-0-0-0-0-| 
G#|-5-5-5-5-0-0-0-0-| 
C#|-5-5-5-5-0-0-0-0-| 

verse 2: 
D#|---------------------------------------------------------| 
A#|---------------------------------------------------------| 
F#|---------5-5-5-5-7-7-7-7-------------------------7-7-7-6-| 
C#|-2-2-2-2-5-5-5-5-7-7-7-7-7-7-7-7-2-2-2-2-0-0-0-0-7-7-7-6-| 
G#|-2-2-2-2-3-3-3-3-5-5-5-5-7-7-7-7-2-2-2-2-0-0-0-0-5-5-5-4-| 
C#|-2-2-2-2-----------------7-7-7-7-2-2-2-2-0-0-0-0---------| 

Bridge: 
D#|-----------------------------------------------------------------| 
A#|-----------------------------------------------------------------| 
F#|-7-7-7-7-7-7-7-7-7-7-7-7-7-7-7-7-5-5-5-5-5-5-5-5-5-5-5-5-5-5-5-5-| 
C#|-7-7-7-7-7-7-7-7-7-7-7-7-7-7-7-7-5-5-5-5-5-5-5-5-5-5-5-5-5-5-5-5-|    x2 
G#|-5-5-5-5-5-5-5-5-5-5-5-5-5-5-5-5-3-3-3-3-3-3-3-3-3-3-3-3-3-3-3-3-| 
C#|-----------------------------------------------------------------| 


D#|---------------------------------| 
A#|---------------------------------| 
F#|-5-5-5-5-5-5-5-5-5-5-5-5-5-5-5-5-| 
C#|-5-5-5-5-5-5-5-5-5-5-5-5-5-5-5-5-| 
G#|-3-3-3-3-3-3-3-3-3-3-3-3-3-3-3-3-| 
C#|---------------------------------| 

Chorus: 
D#|---------------------------------| 
A#|---------------------------------| 
F#|---------7-7-7-7---------5-5-5-5-| 
C#|-5-5-5-5-7-7-7-7-2-2-2-2-5-5-5-5-|    x2 
G#|-5-5-5-5-5-5-5-5-2-2-2-2-3-3-3-3-| 
C#|-5-5-5-5---------2-2-2-2---------| 


D#|-------------------------------------------------------------------------------| 
A#|-------------------------------------------------------------------------------| 
F#|-------------7-7-7-7-7-7-7-7-7-7-------------5-5-5-5-5-5-5-5-5-5-4-4-4-4-4-4-3-| 
C#|-5-5-5-5-5-5-7-7-7-7-7-7-7-7-7-7-2-2-2-2-2-2-5-5-5-5-5-5-5-5-5-5-4-4-4-4-4-4-3-| 
G#|-5-5-5-5-5-5-5-5-5-5-5-5-5-5-5-5-2-2-2-2-2-2-3-3-3-3-3-3-3-3-3-3-2-2-2-2-2-2-1-| 
C#|-5-5-5-5-5-5---------------------2-2-2-2-2-2-----------------------------------| 

Solo: 
D#|-------------------------------------------------------| 
A#|-------15---13-12-13-12------------13---12----12-13-15-| 
F#|-12---------------------12---12------------14----------| 
C#|----12--------------------------12---------------------| 
G#|-------------------------------------------------------| 
C#|-------------------------------------------------------| 


D#|-----------------------------------------------------------------------------------| 
A#|-17p15s13-15p13s12h13p12h13----12-13-12----12-----------------------------12-------| 
F#|----------------------------14----------14----14-12-14-12------14------------14-12-| 
C#|----------------------------------------------------------12------10---10----------| 
G#|-----------------------------------------------------------------------------------| 
C#|-----------------------------------------------------------------------------------| 


D#|-------------------------------------------------| 
A#|----12-13-15-13-12----12-13-15-13-12-13-12----12-| 
F#|-12----------------12----------------------14----| 
C#|-------------------------------------------------| 
G#|-------------------------------------------------| 
C#|-------------------------------------------------| 


D#|-------------------------------------------------| 
A#|----12-13-15-13-12----12-13-15-13-12-13-12----12-| 
F#|-11----------------11----------------------14----| 
C#|-------------------------------------------------| 
G#|-------------------------------------------------| 
C#|-------------------------------------------------| 


D#|------------------------------------------------------------| 
A#|----12-13-15-13-12----12-13-15-13-12-13-12----12------------| 
F#|-------------------------------------------14---------14----| 
C#|-14----------------14----------------------------12------10-| 
G#|------------------------------------------------------------| 
C#|------------------------------------------------------------| 

Chorus: 
D#|-----------------------------------------------------------------| 
A#|-----------------------------------------------------------------| 
F#|-----------------9-9-9-9-9-9-9-9-----------------7-7-7-7-7-7-7-7-| 
C#|-7-7-7-7-7-7-7-7-9-9-9-9-9-9-9-9-4-4-4-4-4-4-4-4-7-7-7-7-7-7-7-7-|    x2 
G#|-7-7-7-7-7-7-7-7-7-7-7-7-7-7-7-7-4-4-4-4-4-4-4-4-5-5-5-5-5-5-5-5-| 
C#|-7-7-7-7-7-7-7-7-----------------4-4-4-4-4-4-4-4-----------------| 


D#|-----------------------------------------------------------------| 
A#|-----------------------------------------------------------------| 
F#|-------------9-9-9-9-9-9-9-9-9-9-------------7-7-7-7-7-7-7-7-7-7-| 
C#|-7-7-7-7-7-7-9-9-9-9-9-9-9-9-9-9-4-4-4-4-4-4-7-7-7-7-7-7-7-7-7-7-| 
G#|-7-7-7-7-7-7-7-7-7-7-7-7-7-7-7-7-4-4-4-4-4-4-5-5-5-5-5-5-5-5-5-5-| 
C#|-7-7-7-7-7-7---------------------4-4-4-4-4-4---------------------| 


D#|---------------------------------------------------------------------| 
A#|---------------------------------------------------------------------| 
F#|-6-6-6-6-6-6-5-5-5-5-5-5-5-5-5-5-4-4-4-4-4-4-9-----------------------| 
C#|-6-6-6-6-6-6-5-5-5-5-5-5-5-5-5-5-4-4-4-4-4-4-9---------------------7-| 
G#|-4-4-4-4-4-4-3-3-3-3-3-3-3-3-3-3-2-2-2-2-2-2-7---------------------7-| 
C#|-------------------------------------------------------------------7-| 


************************************ 

. = Palm Mute 
h = Hammer On 
p = Pull Off 
s = Slide 

************************************ 
		  

See also:

tabs Deep Purple - Smoke On The Water (Easy Intro) tabs Ira! - Envelheço na Cidade tabs Ira! - Flerte Fatal (intro e solo) tabs Deep Purple - Smoke On The Water tabs Deep Purple - Smoke on the Water (correct) tabs Ira! - Poço de Sensibilidade (Solo - Acustico Mtv)
e-chords

Other versions:

tabs Grinspoon - Let It Go tabs Sungha Jung - Let It Go tabs James Bay - Let It Go tabs Demi Lovato - Let It Go tabs The Last Sleepless City - Let It Go tabs Limp Bizkit - Let It Go
auto scroll beats size up size down change color hide chords drawings
tab show chords e-chords YouTube Clip e-chords hide all tabs e-chords go to top tab

share