The Kinks

People Take Pictures Of Each Other

The Kinks

tabs

by  EDUCASTILHO

save to print version add songbook text version e-mail correct tuner
chordsukulelecavacokeyboardtabbassdrumsharmonicaflute Guitar Pro
close

there isn't a video lesson for this song

chords

People Take Pictures Of Each Other

	  		
 Intro 
  Q=148 
  N.C.                              G 
 4/4 
  Gtr I (Ac. 12-string Gtr.) 
  E E E E H      E E E E +E  E Q    E E E E E E E E 
|--------------|------------------|-3-3-3-3-3-3-3-3--| 
|--------------|------------------|-3-3-3-3-3-3-3-3--| 
|--------------|------------------|-4-4-4-4-4-4-4-4--| 
|--------------|---0-2-4-(4)-2-0--|-5-5-5-5-5-5-5-5--| 
|---0-2-3------|-3----------------|-5-5-5-5-5-5-5-5--| 
|-3------------|------------------|-3-3-3-3-3-3-3-3--| 


                     1st, 3rd & 5th Verses 
                  $ 
                      G                                   F 
  E E E E E E E E     E E E E E E E E   E E E E E E E E   E E E E E E E E 
|-3-3-3-3-3-3-3-3-||--3-3-3-3-3-3-3-3-|-3-3-3-3-3-3-3-3-|-1-1-1-1-1-1-1-1-| 
|-3-3-3-3-3-3-3-3-||o-3-3-3-3-3-3-3-3-|-3-3-3-3-3-3-3-3-|-1-1-1-1-1-1-1-1-| 
|-4-4-4-4-4-4-4-4-||--4-4-4-4-4-4-4-4-|-4-4-4-4-4-4-4-4-|-2-2-2-2-2-2-2-2-| 
|-5-5-5-5-5-5-5-5-||--5-5-5-5-5-5-5-5-|-5-5-5-5-5-5-5-5-|-3-3-3-3-3-3-3-3-| 
|-5-5-5-5-5-5-5-5-||o-5-5-5-5-5-5-5-5-|-5-5-5-5-5-5-5-5-|-3-3-3-3-3-3-3-3-| 
|-3-3-3-3-3-3-3-3-||--3-3-3-3-3-3-3-3-|-3-3-3-3-3-3-3-3-|-1-1-1-1-1-1-1-1-| 


                                                        2nd, 4th & 6th Verses 
                    D                                    G 
  E E E E E E E E   E E E E E E E E   E E E E E E E E    E E E E E E E E 
|-1-1-1-1-1-1-1-1-|-2-2-2-2-2-2-2-2-|-2-2-2-2-2-2-2-2-||-3-3-3-3-3-3-3-3-| 
|-1-1-1-1-1-1-1-1-|-3-3-3-3-3-3-3-3-|-3-3-3-3-3-3-3-3-||-3-3-3-3-3-3-3-3-| 
|-2-2-2-2-2-2-2-2-|-2-2-2-2-2-2-2-2-|-2-2-2-2-2-2-2-2-||-4-4-4-4-4-4-4-4-| 
|-3-3-3-3-3-3-3-3-|-0-0-0-0-0-0-0-0-|-0-0-0-0-0-0-0-0-||-5-5-5-5-5-5-5-5-| 
|-3-3-3-3-3-3-3-3-|-----------------|-----------------||-5-5-5-5-5-5-5-5-| 
|-1-1-1-1-1-1-1-1-|-----------------|-----------------||-3-3-3-3-3-3-3-3-| 


                    F                                   D 
  E E E E E E E E   E E E E E E E E   E E E E E E E E   E E E E E E E E 
|-3-3-3-3-3-3-3-3-|-1-1-1-1-1-1-1-1-|-1-1-1-1-1-1-1-1-|-2-2-2-2-2-2-2-2-| 
|-3-3-3-3-3-3-3-3-|-1-1-1-1-1-1-1-1-|-1-1-1-1-1-1-1-1-|-3-3-3-3-3-3-3-3-| 
|-4-4-4-4-4-4-4-4-|-2-2-2-2-2-2-2-2-|-2-2-2-2-2-2-2-2-|-2-2-2-2-2-2-2-2-| 
|-5-5-5-5-5-5-5-5-|-3-3-3-3-3-3-3-3-|-3-3-3-3-3-3-3-3-|-0-0-0-0-0-0-0-0-| 
|-5-5-5-5-5-5-5-5-|-3-3-3-3-3-3-3-3-|-3-3-3-3-3-3-3-3-|-----------------| 
|-3-3-3-3-3-3-3-3-|-1-1-1-1-1-1-1-1-|-1-1-1-1-1-1-1-1-|-----------------| 


                    Bridge 
                    1.,D.S. 
                     C 
  E E E E E E E E    E E E E E E E E   E E E E E E E E   E E E E E E E E 
|-2-2-2-2-2-2-2-2-||-0-0-0-0-0-0-0-0-|-0-0-0-0-0-0-0-0-|-0-0-0-0-0-0-0-0-| 
|-3-3-3-3-3-3-3-3-||-1-1-1-1-1-1-1-1-|-1-1-1-1-1-1-1-1-|-1-1-1-1-1-1-1-1-| 
|-2-2-2-2-2-2-2-2-||-0-0-0-0-0-0-0-0-|-0-0-0-0-0-0-0-0-|-0-0-0-0-0-0-0-0-| 
|-0-0-0-0-0-0-0-0-||-2-2-2-2-2-2-2-2-|-2-2-2-2-2-2-2-2-|-2-2-2-2-2-2-2-2-| 
|-----------------||-3-3-3-3-3-3-3-3-|-3-3-3-3-3-3-3-3-|-3-3-3-3-3-3-3-3-| 
|-----------------||-----------------|-----------------|-----------------| 


  F       C                                             C7 
  E E E E E E E E   E E E E E E E E   E E E E E E E E   E E E E E E E E 
|-1-1-1-1-0-0-0-0-|-0-0-0-0-0-0-0-0-|-0-0-0-0-0-0-0-0-|-0-0-0-0-0-0-0-0-| 
|-1-1-1-1-1-1-1-1-|-1-1-1-1-1-1-1-1-|-1-1-1-1-1-1-1-1-|-1-1-1-1-1-1-1-1-| 
|-2-2-2-2-0-0-0-0-|-0-0-0-0-0-0-0-0-|-0-0-0-0-0-0-0-0-|-3-3-3-3-3-3-3-3-| 
|-3-3-3-3-2-2-2-2-|-2-2-2-2-2-2-2-2-|-2-2-2-2-2-2-2-2-|-2-2-2-2-2-2-2-2-| 
|-3-3-3-3-3-3-3-3-|-3-3-3-3-3-3-3-3-|-3-3-3-3-3-3-3-3-|-3-3-3-3-3-3-3-3-| 
|-1-1-1-1---------|-----------------|-----------------|-----------------| 


                      Interlude 
                      2. 
           To Coda 
                         C                                 D 
  E E E E E E E E      E E E E Q  E E   E E E E Q  E E   E E E E Q  E E 
|-0-0-0-0-0-0-0-0---||----------------|----------------|----------------| 
|-1-1-1-1-1-1-1-1--o||---5---5-6--5---|---5---5-6--5---|---7---7-8--7---| 
|-3-3-3-3-3-3-3-3---||---5---5-5--5---|---5---5-5--5---|---7---7-7--7---| 
|-2-2-2-2-2-2-2-2---||---5---5-5--5---|---5---5-5--5---|---7---7-7--7---| 
|-3-3-3-3-3-3-3-3--o||----------------|----------------|----------------| 
|-------------------||----------------|----------------|----------------| 


  C     G          C 
  Q  Q  Q  E E   E E E E Q  E E   E E E E Q  E E 
|-8--8--7--7---|----------------|----------------| 
|-8--8--8--8---|---5---5-6--5---|---5---5-6--5---| 
|-9--9--7--7---|---5---5-5--5---|---5---5-5--5---| 
|--------------|---5---5-5--5---|---5---5-5--5---| 
|--------------|----------------|----------------| 
|--------------|----------------|----------------| 


    D              C     G          C       G 
  E E E E Q  E E   Q  Q  Q  E E   E E +E  E Q  E E 
|----------------|-8--8--7--7---|---8-(8)-8-7--7---| 
|---7---7-8--7---|-8--8--8--8---|---8-(8)-8-8--8---| 
|---7---7-7--7---|-9--9--7--7---|---9-(9)-9-7--7---| 
|---7---7-7--7---|--------------|------------------| 
|----------------|--------------|------------------| 
|----------------|--------------|------------------| 


                                         D.S. al Coda 
    C     G 
  E E E E Q  E E   E E E E E E E E   E E E E E E E E 
|---8---8-7--7---|-3-3-3-3-3-3-3-3-|-3-3-3-3-3-3-3-3--|| 
|---8---8-8--8---|-3-3-3-3-3-3-3-3-|-3-3-3-3-3-3-3-3--|| 
|---9---9-7--7---|-4-4-4-4-4-4-4-4-|-4-4-4-4-4-4-4-4--|| 
|----------------|-5-5-5-5-5-5-5-5-|-5-5-5-5-5-5-5-5--|| 
|----------------|-5-5-5-5-5-5-5-5-|-5-5-5-5-5-5-5-5--|| 
|----------------|-3-3-3-3-3-3-3-3-|-3-3-3-3-3-3-3-3--|| 


   Outro 
    & 
    G                                   F 
    E E E E E E E E   E E E E E E E E   E E E E E E E E 
||--3-3-3-3-3-3-3-3-|-3-3-3-3-3-3-3-3-|-1-1-1-1-1-1-1-1-| 
||o-3-3-3-3-3-3-3-3-|-3-3-3-3-3-3-3-3-|-1-1-1-1-1-1-1-1-| 
||--4-4-4-4-4-4-4-4-|-4-4-4-4-4-4-4-4-|-2-2-2-2-2-2-2-2-| 
||--5-5-5-5-5-5-5-5-|-5-5-5-5-5-5-5-5-|-3-3-3-3-3-3-3-3-| 
||o-5-5-5-5-5-5-5-5-|-5-5-5-5-5-5-5-5-|-3-3-3-3-3-3-3-3-| 
||--3-3-3-3-3-3-3-3-|-3-3-3-3-3-3-3-3-|-1-1-1-1-1-1-1-1-| 


                    D 
  E E E E E E E E   E E E E E E E E   E E E E E E E E  3x 
|-1-1-1-1-1-1-1-1-|-2-2-2-2-2-2-2-2-|-2-2-2-2-2-2-2-2--|| 
|-1-1-1-1-1-1-1-1-|-3-3-3-3-3-3-3-3-|-3-3-3-3-3-3-3-3-o|| 
|-2-2-2-2-2-2-2-2-|-2-2-2-2-2-2-2-2-|-2-2-2-2-2-2-2-2--|| 
|-3-3-3-3-3-3-3-3-|-0-0-0-0-0-0-0-0-|-0-0-0-0-0-0-0-0--|| 
|-3-3-3-3-3-3-3-3-|-----------------|-----------------o|| 
|-1-1-1-1-1-1-1-1-|-----------------|------------------|| 
 
		  

Full key step upFull key step up
Half key step upHalf key step up
Half key step downHalf key step down
Full key step downFull key step down
hide glossary

See also:

tabs Yes - Roundabout tabs Queen - we will rock you (solo) tabs Status Quo - Whatever you want tabs Eric Clapton - Tears In Heaven (ver. 3) tabs The Beatles - Blackbird tabs Billy Idol - White Wedding
e-chords

Other versions:

tabs The Kinks - People Take Pictures Of Each Other
auto scroll beats size up size down change color hide chords drawings
tab show chords e-chords YouTube Clip e-chords hide all tabs e-chords go to top tab

share