The J. Geils Band

Just Can't Wait

The J. Geils Band

tabs Beginner beginner

by  ALEFFEDERICO

save to print version add songbook text version e-mail correct tuner
chordsukulelecavacokeyboardtabbassdrumsharmonicaflute Guitar Pro
close

there isn't a video lesson for this song

chords

Just Can't Wait

	  		

    G              D   Dsus       C          D    Dsus 
e|------------|---------------|----------|---------------| 
B|---8-8-8----|---7-7--7-9-7--|---5-5-5--|---7-7--7-9-7--| 
G|---7-7-7----|---7-7--7-7-7--|---5-5-5--|---7-7--7-7-7--| 
D|---9-9-9----|---7-7--7-7-7--|---5-5-5--|---7-7--7-7-7--| 
A|------------|---------------|----------|---------------| 
E|------------|---------------|----------|---------------| 

This part is kind of quiet. 

Second chord progression 
   G                   D                    C            Emin 
e|-----------------|--------------------|------------|--------------------| 
B|-----------------|--------------------|------------|--------------------| 
G|-----------------|--------------------|------------|--------------------| 
D|--12--12-14--12--|---7-------7--------|---5-5-7-5--|---9-------9--------| 
A|--10--10-10--10--|---5---7/9---5\-----|---3-3-3-3--|---7--9/10---10\----| 
E|-----------------|--------------------|------------|--------------------| 
                                (^9\) it is easier to play the third but i think 5\ is correct 


  Amin        Bmin        Emin     Emin 
e|--------- |-----------|----------|-------------|     
B|----------|-----------|----------|-------------|     
G|----------|-----------|----------|-------------| 
D|----------|-----------|----------|-------------|  
A|----------|-----------|-7--7-7-7-|-7--0-0-0----| 
E|-5--5-5-5-|-7--7-7-7--|----------|----------3-3| 

  Amin        Bmin        Emin       D  
E|--------- |-----------|----------|-------------|     
B|----------|-----------|----------|-------------|     
G|----------|-----------|----------|--7-7-7-7----| 
D|----------|-----------|----------|--7-7-7-7----|  
A|----------|-----------|-7--7-7-7-|--5-5-5-5----| 
E|-5--5-5-5-|-7--7-7-7--|----------|-------------| 


EWWw GIRL 
    Emin   D      Emin       D     C         D 
e|-------------|------------------------------| 
B|-------------|------------------------------| * staccato 
G|---9----7*---|----9--9----7--7----5---5-5--7| 
D|---9----7*---|----9--9----7--7----5---5-5--7| X2 then hit the crap out of   
A|---7----5*---|----7--7----5--5----3---3-3--5| C before solo 
E|-------------|------------------------------| 


/ slide up 
\ slide down 
b/ bend up 
\b bend down 
~ vibrato 
W Whole step 
WH 1 1/2 step 

  
SOLO 
e|-------------------------------------------------------------------------| 
B|-----------------------------3b/W\b3--0----------------------------------| 
G|--2b/W--2b/W--2b/W\b2--0-2--------------2--0-0--0--0--2b/W--2b/W--b\2----| 
D|--------------------------0-----------------------2----------------------| 
A|-------------------------------------------------------------------------| 
E|-------------------------------------------------------------------------| 


same as before at 12th fret 
e|-------------------------------------------------------------------------| 
B|-----------------------------------15b/W\b15--12-------------------------| 
G|--14b/W--14b/W--14b/W\14--12-14-------------------14--12-12--12---12-----| 
D|--------------------------------12-----------------------------14--------| 
A|-------------------------------------------------------------------------| 
E|-------------------------------------------------------------------------| 

                          Here strum fast    bend to same pitch 
e|-------------------------------------------12-------X2------15------X2---| 
B|---------------------------/12----/15------14b/WH-----------17b/WH----| 
G|--14b/W--14b/W--b\14-------/12----/14------------------------------------| 
D|-------------------------------------------------------------------------| 
A|-------------------------------------------------------------------------| 
E|-------------------------------------------------------------------------| 


e|--17b/W--17b/W---17b/W\b17--15-17~--17b/W\b17---15-17----15---17b/W\b17~-| 
B|------------------------------------------------------17-----------------| 
G|-------------------------------------------------------------------------| 
D|-------------------------------------------------------------------------| 
A|-------------------------------------------------------------------------| 
E|-------------------------------------------------------------------------| 

Ending~fin 

     G  C      G  C      G  C      G 
e|---------------------------------------------------------------------| 
B|---------------------------------------------------------------------| 
G|------5-5-5-----5-5-5-----5-5-5--------------------------------------| 
D|---5--5-5-5--5--5-5-5--5--5-5-5--5-----------------------------------| 
A|---5--3-3-3--5--3-3-3--5--3-3-3--5-----------------------------------| 
E|---3---------3---------3---------3-----------------------------------| 
		  

Full key step upFull key step up
Half key step upHalf key step up
Half key step downHalf key step down
Full key step downFull key step down
hide glossary

See also:

tabs Bon Jovi - It's My Life tabs Kiss - Forever tabs Aerosmith - Dream On tabs Foo Fighters - Everlong (acústico) tabs The Doors - People Are Strange tabs The Offspring - All I Want
e-chords

Other versions:

tabs The J. Geils Band - Just Can't Wait
auto scroll beats size up size down change color hide chords drawings
tab show chords e-chords YouTube Clip e-chords hide all tabs e-chords go to top tab

share