The Interrupters

home > The Interrupters

Room With A View Tab

The Interrupters

Difficulty: nolevelnolevel

by ubirbomfim

tuner correct add songbook print version text version save to e-mail
chordsukulelecavacokeyboardtabbassdrumsharmonicsflute Guitar Pro
chords

Room With A View

	  ------------------------------------------------ 
The Interrupters - Room With A View (Solo) 
------------------------------------------------ 

Transcribed by Chris Johnert 

Tuning: Standard 

Solo 

e|-------------------------------------------------| 
B|--------------------------------------9-8--------| 
G|-----------------8-8----10-------8^10------------| 
D|--6-6-5-6---6^10-----10-------------------11-10--| 
A|-------------------------------------------------| 
E|-------------------------------------------------| 

e|--------------------------------------8------------| 
B|--------------------------9-9----9-11---11-9-11-8--| 
G|----------------8----8-10-----10-------------------| 
D|--8-6-8-10---10---10-------------------------------| 
A|---------------------------------------------------| 
E|---------------------------------------------------| 

e|------------8-11-8-------------------| 
B|--8^9--11-9--------11-9--------------| 
G|------------------------10-10--------| 
D|------------------------------8-6-9--| 
A|-------------------------------------| 
E|-------------------------------------| 

e|------------------------------11-11-------| 
B|-------9----------------------11-11--9-9--| 
G|--8-10---10-8------------------------8-8--| 
D|--------------10-8-6-6--6^10--------------| 
A|------------------------------------------| 
E|------------------------------------------| 
	  

there isn't a video lesson for this song

request
Search Paypal
auto scroll beats size up size down change color hide chords drawings
tab show chords e-chords YouTube Clip e-chords hide all tabs e-chords go to top tab