The Hundred Acre Woods

Base Of My Heart

The Hundred Acre Woods

tabs

by  UBIRBOMFIM

save to print version add songbook text version e-mail correct tuner
chordsukulelecavacokeyboardtabbassdrumsharmonicaflute Guitar Pro
close

there isn't a video lesson for this song

chords

Base Of My Heart

	  		

  

     


 Intro: Repeat twice    
d|-7-----------4-----------2------2h4-0----------7---------4---------7--------4------------------------| 
A|--------0----------0----------0---------0-----------0---------0---------0--------0-------------------| 
G|-----------------------------------------------------------------------------------------------------| 
D|----------0------------0-------------------0--------------------0---------0--------0-----------------| 
A|------------------------------------------------------0----------------------------------------------| 
D|-0---0-------0--0--------0--0---0---0--0-------5--5------0--0------5--5-----0--0---------------------| 

d|-7-----------4-----------2------2h4-0----------7---------4---------7--------0---------0--------------| 
A|--------0----------0----------0---------0-----------0---------0---------0--------0---------0---------| 
G|-----------------------------------------------------------------------------------------------------| 
D|----------0------------0-------------------0--------------------0---------0--------0-----------------| 
A|------------------------------------------------------0--------------------------------------0-------| 
D|-0---0-------0--0--------0--0---0---0--0-------5--5------0--0------5--5-----0--0------0--0-----------| 
         Verse: Repeat twice  
d|-7-----------4-----------2------2h4-0----------7---------4---------7--------4------------------------| 
A|--------0----------0----------0---------0-----------0---------0---------0--------0-------------------| 
G|-----------------------------------------------------------------------------------------------------| 
D|----------0------------0-------------------0--------------------0---------0--------0-----------------| 
A|------------------------------------------------------0----------------------------------------------| 
D|-0---0-------0--0--------0--0---0---0--0-------5--5------0--0------5--5-----0--0---------------------| 

d|-7-----------4-----------2------2h4-0----------7---------4---------7--------4------------------------| 
A|--------0----------0----------0---------0-----------0---------0---------0--------0-------------------| 
G|-----------------------------------------------------------------------------------------------------| 
D|----------0------------0-------------------0--------------------0---------0--------0-----------------| 
A|------------------------------------------------------0----------------------------------------------| 
D|-0---0-------0--0--------0--0---0---0--0-------5--5------0--0------5--5-----0--0---------------------| 
        

 Chorus: 
d|----------0----------0----------0-----------0-----------0----------0----------0----------0-----------| 
A|------0----------0----------0-----------0-----------0----------0----------0----------0---------------| 
G|-----------------------------------------------------------------------------------------------------| 
D|--------0----------0----------0-----------0-----------0----------0----------0----------0-------------| 
A|-2--2-------2--2------------------------------2--2--------2--2---------------------------------------| 
D|-----------------------5--5--------0--0------------------------------5--5-------0--0-----------------| 

d|----------0----------0----------0-----------0----------0----------0----------0----------0------------| 
A|------0----------0----------0-----------0----------0----------0----------0----------0----------0-----| 
G|-----------------------------------------------------------------------------------------------------| 
D|--------0----------0----------0-----------0----------0----------0----------0----------0----------0---| 
A|-2--2-------2--2-------------------------------------------------------------------------------------| 
D|-----------------------5--5--------0--0-------5--5-------0--0-------0--0-------0--0-------0--0-------| 
           
d|-7-----------4-----------2------2h4-0----------7---------4---------7--------4------------------------| 
A|--------0----------0----------0---------0-----------0---------0---------0--------0-------------------| 
G|-----------------------------------------------------------------------------------------------------| 
D|----------0------------0-------------------0--------------------0---------0--------0-----------------| 
A|------------------------------------------------------0----------------------------------------------| 
D|-0---0-------0--0--------0--0---0---0--0-------5--5------0--0------5--5-----0--0---------------------| 

d|-7-----------4-----------2------2h4-0----------7---------4---------7--------0---------0--------------| 
A|--------0----------0----------0---------0-----------0---------0---------0--------0---------0---------| 
G|-----------------------------------------------------------------------------------------------------| 
D|----------0------------0-------------------0--------------------0---------0--------0-----------------| 
A|------------------------------------------------------0--------------------------------------0-------| 
D|-0---0-------0--0--------0--0---0---0--0-------5--5------0--0------5--5-----0--0------0--0-----------| 
       
Verse two: Repeat Twice 
d|-7-----------4-----------2------2h4-0----------7---------4---------7--------4------------------------| 
A|--------0----------0----------0---------0-----------0---------0---------0--------0-------------------| 
G|-----------------------------------------------------------------------------------------------------| 
D|----------0------------0-------------------0--------------------0---------0--------0-----------------| 
A|------------------------------------------------------0----------------------------------------------| 
D|-0---0-------0--0--------0--0---0---0--0-------5--5------0--0------5--5-----0--0---------------------| 

d|-7-----------4-----------2------2h4-0----------7---------4---------7--------0---------0--------------| 
A|--------0----------0----------0---------0-----------0---------0---------0--------0---------0---------| 
G|-----------------------------------------------------------------------------------------------------| 
D|----------0------------0-------------------0--------------------0---------0--------0-----------------| 
A|------------------------------------------------------0--------------------------------------0-------| 
D|-0---0-------0--0--------0--0---0---0--0-------5--5------0--0------5--5-----0--0------0--0-----------| 
      
 Chorus: 
d|----------0----------0----------0-----------0-----------0-----------0---------0----------0-----------| 
A|------0----------0----------0-----------0-----------0----------0----------0----------0---------------| 
G|-----------------------------------------------------------------------------------------------------| 
D|--------0----------0----------0-----------0-----------0-----------0---------0----------0-------------| 
A|-2--2-------2--2------------------------------2--2--------2--2---------------------------------------| 
D|-----------------------5--5--------0--0------------------------------5--5-------0--0-----------------| 

d|----------0----------0----------0-----------0----------0----------0----------0----------0------------| 
A|------0----------0----------0-----------0----------0----------0----------0----------0----------0-----| 
G|-----------------------------------------------------------------------------------------------------| 
D|--------0----------0----------0-----------0----------0----------0----------0----------0----------0---| 
A|-2--2-------2--2-------------------------------------------------------------------------------------| 
D|-----------------------5--5--------0--0-------5--5-------0--0-------0--0-------0--0-------0--0-------| 
           
d|-7-----------4-----------2------2h4-0----------7---------4---------7--------4------------------------| 
A|--------0----------0----------0---------0-----------0---------0---------0--------0-------------------| 
G|-----------------------------------------------------------------------------------------------------| 
D|----------0------------0-------------------0--------------------0---------0--------0-----------------| 
A|------------------------------------------------------0----------------------------------------------| 
D|-0---0-------0--0--------0--0---0---0--0-------5--5------0--0------5--5-----0--0---------------------| 
      
 Outro: (I want you to love me...) 
d|-7--------5--------4--------5--------7--------5--------4--------5--------0--------0--------0---------| 
A|------0--------0--------0--------0--------0--------0--------0--------0--------0--------0--------0----| 
G|-----------------------------------------------------------------------------------------------------| 
D|--------0--------0--------0--------0--------0--------0--------0--------0--------0--------0--------0--| 
A|-----------------------------------------------------------------------------------------------------| 
D|-5--5-----5--5-----5--5-----5--5-----4--4-----4--4-----4--4-----4--4-----0--0-----0--0-----0--0------| 

d|-7--------5--------4--------5--------7--------5--------4--------5--------0--------0--------0---------| 
A|------0--------0--------0--------0--------0--------0--------0--------0--------0--------0--------0----| 
G|-----------------------------------------------------------------------------------------------------| 
D|--------0--------0--------0--------0--------0--------0--------0--------0--------0--------0--------0--| 
A|-----------------------------------------------------------------------------------------------------| 
D|-5--5-----5--5-----5--5-----5--5-----4--4-----4--4-----4--4-----4--4-----0--0-----0--0-----0--0------| 

d|-7--------5--------4--------5--------7--------5--------4--------5--------0--------0--------0---------| 
A|------0--------0--------0--------0--------0--------0--------0--------0--------0--------0--------0----| 
G|-----------------------------------------------------------------------------------------------------| 
D|--------0--------0--------0--------0--------0--------0--------0--------0--------0--------0--------0--| 
A|-----------------------------------------------------------------------------------------------------| 
D|-5--5-----5--5-----5--5-----5--5-----4--4-----4--4-----4--4-----4--4-----0--0-----0--0-----0--0------| 
       
Solo: (what makes this sound so cool is the triplets that Winthrop does, those are the oh2h4p0 things 
I put in the tab. They are probably the hardest to play, but they sound awesome!) 

d|--------0---------0h2h4p0--------0-----------------------0---------0h2h4p0-------0-------------------| 
A|---0------------0-----------0-----------0------------0----------0------------0-------0---------------| 
G|-----------------------------------------------------------------------------------------------------| 
D|---0------0-----0-----------0------0----0--0h2h4p0---0-----0----0------------0-------0--0h2h4p0------| 
A|-----------------------------------------------------------------------------------------------------| 
D|-5----5------0------------5----5------0------------5---5------0------------5---5---0-----------------| 

d|--------0---------0h2h4p0--------0-----------------------0---------0h2h4p0-------0-------------------| 
A|---0------------0-----------0-----------0------------0----------0------------0-------0---------------| 
G|-----------------------------------------------------------------------------------------------------| 
D|---0------0-----0-----------0------0----0--0h2h4p0---0-----0----0------------0-------0--0h2h4p0------| 
A|-----------------------------------------------------------------------------------------------------| 
D|-5----5------0------------5----5------0------------5---5------0------------5---5---0-----------------| 

d|--------0---------0h2h4p0--------0-----------------------0---------0h2h4p0-------0-------------------| 
A|---0------------0-----------0-----------0------------0----------0------------0-------0---------------| 
G|-----------------------------------------------------------------------------------------------------| 
D|---0------0-----0-----------0------0----0--0h2h4p0---0-----0----0------------0-------0--0h2h4p0------| 
A|-----------------------------------------------------------------------------------------------------| 
D|-5----5------0------------5----5------0------------5---5------0------------5---5---0-----------------| 

d|--------0---------0h2h4p0--------0----------------------0--------------------------------------------| 
A|---0------------0-----------0-----------0---------------0--------------------------------------------| 
G|-----------------------------------------------------------------------------------------------------| 
D|---0------0-----0-----------0------0----0--2/4-4\2----0----------------------------------------------| 
A|-----------------------------------------------------------------------------------------------------| 
D|-5----5------0------------5----5------0-----------------5--------------------------------------------| 


  Lyrics: 
        There is something at the base of my heart  
 It yearns for your love, a true work of art  
 But sometimes my heart gets frozen in fear  
 It stops pumping blood when I feel you're near  

 And I guess I should have been born  
 With a face that you could love a little more  
 'Cause you are the one that I long for  
 I'll wait for you 'til I can't anymore  

 I guess that I take comfort in your smile  
 The way it reflects all the words I've compiled  
 But sometimes your smile doesn't show its face  
 Incased in a world where for me there's no place  

 And I guess we should have been born  
 In a time that you could love a little more  
 But you are the girl that I long for  
 I'll wait for you 'til I can't anymore  

 And I want you to love me  
 You make me see clearly  
 I swear its madness  
 Give me all of your troubles  
 The ones making you crumble  
 Its fine my darling  
 I want all of your being  
 With every bit in me 







 And that's about all, hope you guys enjoy! :) 
 Questions, Comments, and suggestions are much appreciated since this is my first tab.   

************************************ 

| /   slide up 
| \   slide down 
| h   hammer-on 
| p   pull-off 
| ~   vibrato 
| +   harmonic 
| x   Mute note 
| b   Bend 
| pb  Pre-bend 
| br  Bend release 
| pbr Pre-bend release 
| brb Bend release bend 

************************************ 
		  

See also:

tabs Deep Purple - Burn tabs Deep Purple - Lazy tabs Deep Purple - Deep Purple - Smoke On The Water tabs Deep Purple - Stormbringer tabs Deep Purple - Demon's Eye tabs Albert Hammond Jr - Holiday
e-chords

Other versions:

tabs The Hundred Acre Woods - Base Of My Heart
auto scroll beats size up size down change color hide chords drawings
tab show chords e-chords YouTube Clip e-chords hide all tabs e-chords go to top tab

share