The Hives

Walk Idiot Walk

The Hives

tabs Beginner beginner

save to print version add songbook text version e-mail correct tuner
chordsukulelecavacokeyboardtabbassdrumsharmonicaflute Guitar Pro
close

there isn't a video lesson for this song

chords

Walk Idiot Walk

Year: 2004 - Album: Tyrannosaurus Hives

	  		Title- Walk Idiot Walk 
Artist- The Hives 
 
This is the newest song from THE HIVES. It hasnt been released yet and I just transcribed it through hearing them play it live. 
 
Intro and Chorus 
E||-----------------------------------------------------| 
B||-----------------------------------------------------| 
G||--9-9---7--14--12--14-14-14--------------------------| 
D||--9-9---7--14--12--14-14-14--------------------------| 
A||--7-7---5--12--10--12-12-12--------------------------| 
E||-----------------------------------------------------| 
 
Verse: (not correct strum pattern) 
E||--0-0--0-0-0--0-0-0-0--------------------------------------| 
B||--3-3--2-2-2--1-1-1-0--------------------------------------| 
G||-----------------------------------------------------------| 
D||-----------------------------------------------------------| 
A||-----------------------------------------------------------| 
E||-------------------0-3-0-----------------------------------| 
 

		  

See also:

tabs The Hives - Hate To Say I Told You So tabs The Hives - Tick Tick Tick Boom tabs Ebba Grön - 800 Grader tabs The Hives - Untutored Youth tabs The Hives - Die All Right (ver. 4) tabs The Hives - Die, All Right!
e-chords

Other versions:

tabs The Hives - Walk Idiot Walk
auto scroll beats size up size down change color hide chords drawings
tab show chords e-chords YouTube Clip e-chords hide all tabs e-chords go to top tab

share