The Hives

Untutored Youth

The Hives

tabs

save to print version add songbook text version e-mail correct tuner
chordsukulelecavacokeyboardtabbassdrumsharmonicaflute Guitar Pro
close

there isn't a video lesson for this song

chords

Untutored Youth

	  		 
Tabbed By: REFLECTING GOD a.k.a James 
 
This is my first tab hope you think it sound right 
 
e-------- 
B-------- 
G--555--- 
D--333--- 
A-------- 
E-------- 
 
e--------------------------------------- 
B--------------------------------------- 
G--5-5-5-5------------------------------ 
D--3-3-3-3--3-3-3-3--6-6-6-6--5-5-5-5--- 
A-----------1-1-1-1--4-4-4-4--3-3-3-3--- 
E--------------------------------------- 
 
e--------------------------------------- 
B--------------------------------------- 
G--5-5-5-5------------------------------ 
D--3-3-3-3--3-3-3-3--6-6-6-6--5-5-5-5--- 
A-----------1-1-1-1--4-4-4-4--3-3-3-3--- 
E--------------------------------------- 
 
e--------------------------------------- 
B--------------------------------------- 
G--5-5-5-5------------------------------ 
D--3-3-3-3--3-3-3-3--6-6-6-6--5-5-5-5--- 
A-----------1-1-1-1--4-4-4-4--3-3-3-3--- 
E--------------------------------------- 
 
e------------------------------------------ 
B------------------------------------------ 
G--5-5-5-5------------------------------5-- 
D--3-3-3-3--3-3-3-3--6-6-6-6--5-5-5-5---3-- 
A-----------1-1-1-1--4-4-4-4--3-3-3-3------ 
E------------------------------------------ 
 

		  

See also:

tabs The Hives - Introduce The Metric System In Time tabs Ebba Grön - 800 Grader tabs The Hives - Fall Is Just Something That Grownups Invented tabs Ebba Grön - Ung Och Sankt tabs The Hives - Untutored Youth (ver. 2) tabs The Hives - Theme From
e-chords

Other versions:

tabs The Hives - Untutored Youth tabs The Hives - Untutored Youth (ver. 2)
auto scroll beats size up size down change color hide chords drawings
tab show chords e-chords YouTube Clip e-chords hide all tabs e-chords go to top tab

share