The Hives

Two Kinds Of Trouble

The Hives

tabs

by  ALEFFEDERICO

save to print version add songbook text version e-mail correct tuner
chordsukulelecavacokeyboardtabbassdrumsharmonicaflute Guitar Pro
close

there isn't a video lesson for this song

chords

Two Kinds Of Trouble

	  		

e|------VERSE--------------------BRIDGE----------------------------| 
B|-----------------------------------------------------------------| 
G|------5-------7--------------------------------------------------| 
D|--7---5---3---7----------3-(5X)-7-(5X)-5-(5X)-10-(5X)-3--7--5--5-| 
A|--7---3---3---5----------3------7------5------10------3--7--5--5-| 
E|--5-------1--------------1------5------3------8-------1--5--3--3-| 

P1 

e|--------MAIN RIFF---------------| 
B|--------------------------------| 
G|---------------------9----------| 
D|-----7------7---10--------------| 
A|--------10----------------------| 
E|--------------------------------| 

P2 

e|--------MAIN RIFF----------------------| 
B|---------------------------------------| 
G|-----------------9---9---7------7--9?7-| 
D|-7------7---10--------------10---------| 
A|----10---------------------------------| 
E|---------------------------------------| 

P3 

e|--------MAIN RIFF---------------| 
B|--------------------------------| 
G|-7------7--9--7-----------------| 
D|----10-----------10--7------7---| 
A|------------------------10------| 
E|--------------------------------|  
		  

See also:

tabs The Hives - Hate To Say I Told You So tabs The Hives - Tick Tick Tick Boom tabs Ebba Grön - 800 Grader tabs The Hives - Untutored Youth tabs The Hives - Die All Right (ver. 4) tabs The Hives - Die, All Right!
e-chords

Other versions:

tabs The Hives - Two Kinds Of Trouble
auto scroll beats size up size down change color hide chords drawings
tab show chords e-chords YouTube Clip e-chords hide all tabs e-chords go to top tab

share