The Hives

Mad Man

The Hives

tabs Intermediate intermediate

by  WEEZER PILLOWS

save to print version add songbook text version e-mail correct tuner
chordsukulelecavacokeyboardtabbassdrumsharmonicaflute Guitar Pro
close

there isn't a video lesson for this song

chords

Mad Man

	  		Mad Man 
The Hives 
 
in. . . 
STANDARD TUNING 
 
Main Riff - this is played many times, and it's 
|----------------------------|played VERY FAST. 
|----------------------------| 
|------------------44444444--| 
|--555555554444444444444444--| 
|--555555554444444422222222--| 
|--3333333322222222----------| 
 
Solo thing 
|--------------------------------| 
|--------------------------------| 
|----------------------------4~--| 
|----5-4--------5-4----------4~--|x2 
|--2-----5--2-2-----5-----0--2~--| 
|-----------------------2--------| 
 
(~ means let ring) 
 
That's all folks! 
 
Have fun! 

		  

See also:

tabs The Hives - Hate To Say I Told You So tabs The Hives - Tick Tick Tick Boom tabs Ebba Grön - 800 Grader tabs The Hives - Untutored Youth tabs The Hives - Die All Right (ver. 4) tabs The Hives - Die, All Right!
e-chords

Other versions:

tabs The Hives - Mad Man
auto scroll beats size up size down change color hide chords drawings
tab show chords e-chords YouTube Clip e-chords hide all tabs e-chords go to top tab

share