The Hives

Fall Is Just Something That Grownups Invented

The Hives

tabs

by  ADALGOMES

save to print version add songbook text version e-mail correct tuner
chordsukulelecavacokeyboardtabbassdrumsharmonicaflute Guitar Pro
close

there isn't a video lesson for this song

chords

Fall Is Just Something That Grownups Invented

	  		
Intro: 
e|---8------------------------|---------------------------------------| 
B|---8------5b-10~10~10~10~-8-|--5~5~5~5~5~5~------------0~~~~~~~-----| 
D|-9b-9-----------------------|--7b7b7b7b7b7b-7-5--------0~~~~~~~-----| 
A|----------------------------|-------------------7~~~---0~~~~~~~-----| 
G|----------------------------|---------------------------------------| 
E|----------------------------|---------------------------------------| 
                                              
verse 1: 
e|---------------|----------------|--------------|----------------0~--| 
B|---2~~~-3~-2~~-|-2~~~~~~--------| 2~~~~---3~-2-|-2~~~~~~-------2~~--| 
G|---2~~~-2~-2~~-|-2~~~~~~-1~-2~~-|-2~~~~--2~~-2-|-2~~~~~~-1----2~~~--| 
D|---2~~~-0~-2~~-|-2~~~~~~-2~-2~~-|-2~~~~-0~~~-2-|-2~~~~~~-2---2~~~~--| 
A|-0~~~~~----0~~-|-0~~~~~~-2~-0~~-|-0~~~~------0-|-0~~~~~~-2--0~~~~~--| 
E|---------------|---------0~-----|--------------|---------0----------| 

Chorus: 
e|--------------------------------------------------------------------| 
B|--------------------------------------------------------------------| 
G|-----------------9-9-9-9-9-9-9-9-7-7-7-7-7-7-7-7--------------------| 
D|-4-4-4-4-4-4-4-4-9-9-9-9-9-9-9-9-7-7-7-7-7-7-7-7-7-7-7-7-7-7-7-7----| 
A|-4-4-4-4-4-4-4-4-7-7-7-7-7-7-7-7-5-5-5-5-5-5-5-5-7-7-7-7-7-7-7-7----| 
E|-2-2-2-2-2-2-2-2---------------------------------5-5-5-5-5-5-5-5----| 

Post Chorus/verse 2 
e|------------------------------|-------------------------------------| 
B|------------------------------|-------------------------------------| 
G|------------------777~-7------|------------------999~-9-------------| X2 
D|-777~-7-7-7-7-7-7-777~-7-7~-7-|-777~-7-7-7-7-7-7-999~-9-777~-7------| 
A|-777~-7-7-7-7-7-7-555~-5-7~-7-|-777~-7-7-7-7-7-7-777-~7-777~-7------| 
E|-555~-5-5-5-5-5-5--------5~-5-|-555~-5-5-5-5-5-5--------555~-5------| 

Chorus: 
e|--------------------------------------------------------------------| 
B|--------------------------------------------------------------------| 
G|-----------------9-9-9-9-9-9-9-9-7-7-7-7-7-7-7-7--------------------| 
D|-4-4-4-4-4-4-4-4-9-9-9-9-9-9-9-9-7-7-7-7-7-7-7-7-7-7-7-7-7-7-7-7----| 
A|-4-4-4-4-4-4-4-4-7-7-7-7-7-7-7-7-5-5-5-5-5-5-5-5-7-7-7-7-7-7-7-7----| 
E|-2-2-2-2-2-2-2-2---------------------------------5-5-5-5-5-5-5-5----| 

Bridge: 
e|---------------------------------|----------------------------------| 
B|---------------------------------|-10-10-10-10-10-10-10-------------| 
G|------------------777~-7---------|-12b12b12b12b12b12b12b-12~--------| 
D|-777~-7-7-7-7-7-7-777~-7-7~-7-777|--------------------------14~-----| 
A|-777~-7-7-7-7-7-7-555~-5-7~-7-777|-----------------------------12~--| 
E|-555~-5-5-5-5-5-5--------5~-5-555|----------------------------------| 

e|---------------------------------| 
B|---------------------------------| 
G|------------------777~-7---------| (Bass Solo) 
D|-777~-7-7-7-7-7-7-777~-7-7~-7-777|  
A|-777~-7-7-7-7-7-7-555~-5-7~-7-777|  
E|-555~-5-5-5-5-5-5--------5~-5-555|  

e|---------------------------------|---------8-8b~--------------------| 
B|---------------------------------|---------7-7b~--------------------| 
G|------------------777~-7---------|-8-8-8-8--------------------------| 
D|-777~-7-7-7-7-7-7-777~-7-7~-7-777|-7-7-7-7--------------------------| 
A|-777~-7-7-7-7-7-7-555~-5-7~-7-777|----------------------------------| 
E|-555~-5-5-5-5-5-5--------5~-5-555|----------------------------------| 

e|---------------------------------| 
B|---------------------------------| 
G|------------------777~-7---------| (Drum Solo) 
D|-777~-7-7-7-7-7-7-777~-7-7~-7-777| 
A|-777~-7-7-7-7-7-7-555~-5-7~-7-777|  
E|-555~-5-5-5-5-5-5--------5~-5-555|  

Chorus: 
e|--------------------------------------------------------------------| 
B|--------------------------------------------------------------------| 
G|-----------------9-9-9-9-9-9-9-9-7-7-7-7-7-7-7-7--------------------| 
D|-4-4-4-4-4-4-4-4-9-9-9-9-9-9-9-9-7-7-7-7-7-7-7-7-7-7-7-7-7-7-7-7----| 
A|-4-4-4-4-4-4-4-4-7-7-7-7-7-7-7-7-5-5-5-5-5-5-5-5-7-7-7-7-7-7-7-7----| 
E|-2-2-2-2-2-2-2-2---------------------------------5-5-5-5-5-5-5-5----| 

Outro: 
e|----------------------------|---------------------------------------| 
B|----------------------------|---------------------------------------| 
G|-----------------7-7-7------|-----------------9-9-9-----------------| X2 
D|-7-7-7-7-7-7-7-7-7-7-7-7~-7-|-7-7-7-7-7-7-7-7-9-9-9-7-7~------------| 
A|-7-7-7-7-7-7-7-7-5-5-5-7~-7-|-7-7-7-7-7-7-7-7-7-7-7-7-7~------------| 
E|-5-5-5-5-5-5-5-5-------5~-5-|-5-5-5-5-5-5-5-5-------5-5~------------| 

 
		  

See also:

tabs The Hives - Introduce The Metric System In Time tabs Ebba Grön - 800 Grader tabs The Hives - Fall Is Just Something That Grownups Invented tabs Ebba Grön - Ung Och Sankt tabs The Hives - Untutored Youth (ver. 2) tabs The Hives - Theme From
e-chords

Other versions:

tabs The Hives - Fall Is Just Something That Grownups Invented
auto scroll beats size up size down change color hide chords drawings
tab show chords e-chords YouTube Clip e-chords hide all tabs e-chords go to top tab

share