The Hives

Blood Red Moon

The Hives

tabs

by  FERNSANTANA

save to print version add songbook text version e-mail correct tuner
chordsukulelecavacokeyboardtabbassdrumsharmonicaflute Guitar Pro
close

there isn't a video lesson for this song

chords

Blood Red Moon

	  		
Intro 

e|-7/8----8----10---12--|-12--10--8---13--|-12--10--8---7/8--| 
B|-8/10---10---12---13--|-13--12--10--15--|-13--12--10--8/10-| 
G|----------------------|-----------------|------------------| 
D|----------------------|-----------------|------------------| 
A|----------------------|-----------------|------------------| 
E|----------------------|-----------------|------------------| 


Verse 

e|-7/8----8----10---12--|-12--10--8---13--12-13--|-12--10--8---7/8--| 
B|-8/10---10---12---13--|-13--12--10--15--13-15--|-13--12--10--8/10-| 
G|----------------------|------------------------|------------------| 
D|----------------------|------------------------|------------------| 
A|----------------------|------------------------|------------------| 
E|----------------------|------------------------|------------------| 

e|------8-----8--10--12--|-13-12----13-12--13--15--13-12-13-|-13-12-10-8---7/8--| 
B|-8/10---10--10-12--13--|-------13--------15--17--15-13-15-|-15-13-12-10--8/10-| 
G|-----------------------|----------------------------------|-------------------| 
D|-----------------------|----------------------------------|-------------------| 
A|-----------------------|----------------------------------|-------------------| 
E|-----------------------|----------------------------------|-------------------| 


Chorus 

e|--15b----10--------|------------------|---------------------------------| 
B|-------------12brb-|-12brb---10-12-10-|---------------------------------| 
G|-------------------|-------12---------|---------------------------------| 
D|-------------------|------------------|---------------------------------| 
A|-------------------|------------------|-12-10--------------10--10h12p---| 
E|-------------------|------------------|-------12-10/8/10h12--12------13-| 

e|----------------|---------------|----------------------|----|-------------------------------------------| 
B|----------------|---------------|----------------------|----|-------------------------------------------| 
G|----------------|---------------|----------------------|----|-------------------------------------------| 
D|----------------|---------------|----------------------|----|---14p12------------------12--12-----------| 
A|----------------|--------15--17-|--17b-17r-17p15-10/12-|-15-|--------14/12-10/12/14-14--14--14-12/10----| 
E|--15-15TR17--13-|-15TR17--------|----------------------|----|----------------------------------------12-| 


verse 2 

e|-7/8----8----10---12--|-12--10--8---13--12-13--|-12--10--8---7/8--| 
B|-8/10---10---12---13--|-13--12--10--15--13-15--|-13--12--10--8/10-| 
G|----------------------|------------------------|------------------| 
D|----------------------|------------------------|------------------| 
A|----------------------|------------------------|------------------| 
E|----------------------|------------------------|------------------| 

e|-7/8--7/8--7/8--| 
B|-8/10-8/10-8/10-| 
G|----------------| 
D|----------------| 
A|----------------| 
E|----------------| 

e|------8-----8--10--12--|-13-12----13-12--13--15--13-12-13-|-13-12-10-8---7/8--| 
B|-8/10---10--10-12--13--|-------13--------15--17--15-13-15-|-15-13-12-10--8/10-| 
G|-----------------------|----------------------------------|-------------------| 
D|-----------------------|----------------------------------|-------------------| 
A|-----------------------|----------------------------------|-------------------| 
E|-----------------------|----------------------------------|-------------------| 


Chorus 

e|--15b----10--------|------------------|---------------------------------| 
B|-------------12brb-|-12brb---10-12-10-|---------------------------------| 
G|-------------------|-------12---------|---------------------------------| 
D|-------------------|------------------|---------------------------------| 
A|-------------------|------------------|-12-10--------------10--10h12p---| 
E|-------------------|------------------|-------12-10/8/10h12--12------13-| 

e|----------------|---------------|----------------------|----|-------------------------------------------| 
B|----------------|---------------|----------------------|----|-------------------------------------------| 
G|----------------|---------------|----------------------|----|-------------------------------------------| 
D|----------------|---------------|----------------------|----|---14p12------------------12--12-----------| 
A|----------------|--------15--17-|--17b-17r-17p15-10/12-|-15-|--------14/12-10/12/14-14--14--14-12/10----| 
E|--15-15TR17--13-|-15TR17--------|----------------------|----|----------------------------------------12-| 


Bridge 
guitar 1 
e|-------------|---------|---------|---------|---------|--------|-------|--5--| 
B|-------------|---------|---------|---------|---------|--------|-------|--5--| 
G|-------------|---------|---------|---------|---------|--------|-------|--5--| 
D|-------------|---------|---------|-------3-|-3-2-0---|--------|-------|--7--| 
A|-------------|---------|-------7-|-7-5-3---|-------3-|-5---2--|-3-----|--x--| 
E|-5--5-7-8-7--|-7-8-7-5-|-5-7-8---|---------|---------|--------|-----5-|--x--| 
guitar 2 
e|-----------------------|-------12|------------| 
B|-----------------------|-----13--|-15TR17-15~-| 
G|-----------------------|---14----|------------| 
D|-----------------------|-14------|------------| 
A|-----------------------|---------|------------| 
E|-----------------------|---------|------------| 


Outro 

e|--15b----10--------|------------------|---------------------------------| 
B|-------------12brb-|-12brb---10-12-10-|---------------------------------| 
G|-------------------|-------12---------|---------------------------------| 
D|-------------------|------------------|---------------------------------| 
A|-------------------|------------------|-12-10--------------10--10h12p---| 
E|-------------------|------------------|-------12-10/8/10h12--12------13-| 

e|----------------|---------------|----------------------|----|-------------------------------------------| 
B|----------------|---------------|----------------------|----|-------------------------------------------| 
G|----------------|---------------|----------------------|----|-------------------------------------------| 
D|----------------|---------------|----------------------|----|---14p12------------------12--12-----------| 
A|----------------|--------15--17-|--17b-17r-17p15-10/12-|-15-|--------14/12-10/12/14-14--14--14-12/10----| 
E|--15-15TR17--13-|-15TR17--------|----------------------|----|----------------------------------------12-| 

e|----------------------|----------------------------|-17/15-17p15--------------------| 
B|-------13-15/17-15-13-|-------13-15/17-15-13-15/17-|------------17p15/13-15---------| 
G|-12-14----------------|-12-14----------------------|-----------------------14/12-14-| 
D|----------------------|----------------------------|--------------------------------| 
A|----------------------|----------------------------|--------------------------------| 
E|----------------------|----------------------------|--------------------------------| 

e|--17/15-|-------------17/15-|-------------------------| 
B|--------|-17/15-17/15-------|-------------------------| 
G|--------|-------------------|-16b16r-14TR16-16-14-16b-| 
D|--------|-------------------|-------------------------| 
A|--------|-------------------|-------------------------| 
E|--------|-------------------|-------------------------| 

************************************ 
| h   Hammer-on 
| p   Pull-off 
| r   Release 
| b   Bend 
| br  Bend release 
| /   Slide up 
| \   Slide down 
| ~   Vibrato 
| TR  Trill 

************************************ 
		  

See also:

tabs The Hives - Hate To Say I Told You So tabs The Hives - Tick Tick Tick Boom tabs Ebba Grön - 800 Grader tabs The Hives - Untutored Youth tabs The Hives - Die All Right (ver. 4) tabs The Hives - Die, All Right!
e-chords

Other versions:

tabs The XX - Blood Red Moon tabs The Hives - Blood Red Moon
auto scroll beats size up size down change color hide chords drawings
tab show chords e-chords YouTube Clip e-chords hide all tabs e-chords go to top tab

share