The Hellacopters

You are nothing

The Hellacopters

tabs

by  TONHOTKD

save to print version add songbook text version e-mail correct tuner
chordsukulelecavacokeyboardtabbassdrumsharmonicaflute Guitar Pro
close

there isn't a video lesson for this song

chords

You are nothing

	  		SONG Title:     You are nothing / paying the dues 
 
ARTIST/GROUP:   Hellacopters 
 
TRANSCRIBED By: Bollo 
 
 
 
Verse: 
 
E|--------------------------------------| 
B|------------3--3----------------------| 
G|--4---------2--2-----------4----------| 
D|--4---------0--0-----------4----------| 
A|--2------------------------2----------| 
E|-------------------0-1-2--------------| 
 
 
 
 
 
 
 
You are nothinī 
 
B                              D  E-string---0-1-2-----| B 
 
   You are nothinī Im for real 
 
   You see iīm rockinī cause the devilīs got a deal 
 
   ainīt got no time left but iīve got shiva on my right 
 
   youīre in deep shit baby while iīm in the limelight 
 
 
 
   D              A          B 
 
   action rockinī man born & bred 
 
                G                  D           B 
 
   and iīve got asteroids bouncinī round in my head 
 
                 D            A           B 
 
   weīre talkinī cliches baby i know itīs true 
 
                  G                 D        B    D A B 
 
   you just canīt stand iīm not one bit like you 
 
 
 
 
 
   i keep on runninī youīre standinī still (riff a) 
 
   yeah i move my ass to get kicks and dirt cheap thrills (riff b) 
 
   yor lips are movinī but i canīt hear you say (some pickslide) 
 
   yeah you hit the ditch and i hit the highway (riff c not yet figured out) 
 
 
 
riff a: 
 
E|--------------------------------------| 
B|--5b7-5b7-----3-----------------------| 
G|----------2h4----4--------------------| 
D|--------------------------------------| 
A|--------------------------------------| 
E|--------------------------------------| 
 
 
 
 
 
riff b: 
 
E|-------6------------------------| 
B|-3h5b6---6r5p3---5b6-(hold bend)| 
G|---------------4----------------| 
D|--------------------------------| 
A|--------------------------------| 
E|--------------------------------| 
 
 
 
 
 

		  

Full key step upFull key step up
Half key step upHalf key step up
Half key step downHalf key step down
Full key step downFull key step down
hide glossary

See also:

tabs Yngwie Malmsteen - Casting Pearls Before The Swine tabs Yngwie Malmsteen - Evil Eye tabs Yngwie Malmsteen - Caught in the Middle tabs Yngwie Malmsteen - Too Young To Die, Too Drunk To Live tabs Yngwie Malmsteen - Carry on Wayward Son tabs The Hellacopters - Hopeless case of a kid in denial
e-chords

Other versions:

tabs The Hellacopters - You are nothing
auto scroll beats size up size down change color hide chords drawings
tab show chords e-chords YouTube Clip e-chords hide all tabs e-chords go to top tab

share