The Hats

Vomiting you

The Hats

tabs

by  666 GRRRL

save to print version add songbook text version e-mail correct tuner
chordsukulelecavacokeyboardtabbassdrumsharmonicaflute Guitar Pro
close

there isn't a video lesson for this song

chords

Vomiting you

	  		into: (bass + drum) 
 
e-----------------------------------     
B-----------------------------------     
G-----------------------------------  (8x)  
D-----------------------------------      
A-----------0-----2-----1-----1----- 
E-0-0-3-0-0---0-0---0-0---0-0------- 
 
G Am Gm Am Gm G (4x) 
 
e-----------------------------------     
B-----------------------------------     
G-----------------------------------  (10x)  
D-----------------------------------      
A-----------0-----2-----1-----1----- 
E-0-0-3-0-0---0-0---0-0---0-0------- 
 
G (repetindo várias vezes) 
 
e-----------------------------------     
B-----------------------------------     
G-----------------------------------  (4x)  
D-----------------------------------      
A-----------0-----2-----1-----1----- 
E-0-0-3-0-0---0-0---0-0---0-0------- 
 
G Am Gm Am Gm G (4x) 
 
e-----------------------------------     
B-----------------------------------     
G-----------------------------------  (5x)  
D-----------------------------------      
A-----------0-----2-----1-----1----- 
E-0-0-3-0-0---0-0---0-0---0-0------- fade out 
 
 
 

		  

Full key step upFull key step up
Half key step upHalf key step up
Half key step downHalf key step down
Full key step downFull key step down
hide glossary

See also:

tabs Bad Religion - Infected tabs Green Day - Minority tabs Green Day - Boulevard of Broken Dreams tabs Blink 182 - Stay Together For The Kids (ver. 4) tabs Matchbook Romance - Monsters tabs Blink 182 - Stay together for the kids (ver. 2)
e-chords

Other versions:

tabs The Hats - Vomiting you
auto scroll beats size up size down change color hide chords drawings
tab show chords e-chords YouTube Clip e-chords hide all tabs e-chords go to top tab

share