The Hats

Diet Crab

The Hats

tabs

by  PUNKYBREWSTER

save to print version add songbook text version e-mail correct tuner
chordsukulelecavacokeyboardtabbassdrumsharmonicaflute Guitar Pro
close

there isn't a video lesson for this song

chords

Diet Crab

	  		+A.O.S+ 
the hats - diet crab 
 
----------------------------------------- 
----------------------------------------- 
----------------------------------------- 
-3-3-3-3-0-3-3-3-3-0-3-3-3-3-0-3-3-3-- 
-2-2-2-2-0-2-2-2-2-0-2-2-2-2-0-2-2-2-- 
-0-0-0-0-0-0-0-0-0-0-0-0-0-0-0-0-0-0-- 
 
repete várias vezes 
--------------------- 
--------------------- 
--------------------- 
-x-x----------------- 
-2-2----------------- 
-0-0----------------- 
 
------------------------------------- 
------------------------------------- 
------------------------------------- 
-7-7-7-7-7-7-7-7--X-x-x-x-X-x-x-X-- 
-7-7-7-7-7-7-7-7--2-2-2-0-0-2-2-2-- 
-5-5-5-5-5-5-5-5--0-0-0-0-0-0-0-0-- 
 
------------------------------------------------------------------------------------ 
------------------------------------------------------------------------------------ 
------------------------------------------------------------------------------------ 
------------------------------------------------------------------------------------ 
-7-7-7-7-7-7-7--2-2-2-2-2-2-2---7-7-7-7-7-7-7-7--3-3-3-3-3-3-3--2-2-2-2-2-2-2-- 
------------------------------------------------------------------------------------ 
 
(8x) 
----------------------------------------- 
----------------------------------------- 
----------------------------------------- 
-x-X--6-6--7-7--9-9--------------------- 
-2-2--6-6--7-7--9-9--------------------- 
-0-0--4-4--5-5--7-7--------------------- 
 
Essa tablatura tem alguns erros, mas como eu sempre falo, "dá p/ tocar"... 
+A.O.S+ 
+Punky Brewster+ 
[email protected] 
		  

See also:

tabs Bad Religion - Infected tabs Green Day - Minority tabs Green Day - Boulevard of Broken Dreams tabs Blink 182 - Stay Together For The Kids (ver. 4) tabs Matchbook Romance - Monsters tabs Blink 182 - Stay together for the kids (ver. 2)
e-chords

Other versions:

tabs The Hats - Diet Crab
auto scroll beats size up size down change color hide chords drawings
tab show chords e-chords YouTube Clip e-chords hide all tabs e-chords go to top tab

share