The Go-Betweens

I'm All Right

The Go-Betweens

tabs

by  ADALGOMES

save to print version add songbook text version e-mail correct tuner
chordsukulelecavacokeyboardtabbassdrumsharmonicaflute Guitar Pro
close

there isn't a video lesson for this song

chords

I'm All Right

	  		verse 1 
(00:10) 
G|---------|----------|---------|----------| 
D|---------|----------|---------|----------| 
A|-8-------|----------|-8-------|----------| 
E|---------|-6----8---|---------|-6----8---| 

G|---------|----------|---------|--------------| 
D|---------|----------|---------|--------------| 
A|-8-------|------7---|-8-------|--------------| 
E|---------|-6--------|---------|-6----8-8-10-8| 

Interlude 
G|-------------|---------------|-------------|---------------| 
D|-------------|---------------|-------------|---------------| 
A|-8---8-8-8--\|---------------|-8---8-8-8--\|---------------| 
E|-------------|-6-6---8-8-10-8|-------------|-6-6---8-8-10-8| 

verse 2 
G|-----------|-----------|-----------|-----------| 
D|-----------|-----------|-----------|-----------| 
A|-8---8-8---|-----------|-8---8-8---|-----------| 
E|-----------|-6---8-8---|-----------|-6---8-8---| 

G|-----------|-----------|-----------|---------------| 
D|-----------|-----------|-----------|---------------| 
A|-8---8-8---|-----7-7---|-8---8-8---|---------------| 
E|-----------|-6---------|-----------|-6---8-8-8-10-8| 

Interlude 
G|-------------|---------------|-------------|---------------| 
D|-------------|---------------|-------------|---------------| 
A|-8---8-8-8--\|---------------|-8---8-8-8--\|---------------| 
E|-------------|-6-6---8-8-10-8|-------------|-6-6---8-8-10-8| 

Bridge 
G|------------|----------------|------------|----------------| 
D|------------|---------5------|------------|----------------| 
A|-------6---6|-5-5-8-5---8-5--|-------6---6|-5-5-8-5--------| 
E|-6---6------|---------------8|-6---6------|---------3-3-5-3| 

G|------------|----------------|------------|----------------| 
D|------------|---------5------|------------|----------------| 
A|-------6---6|-5-5-8-5---8-5--|-------6---6|-5-5-8-5-----5--| 
E|-6---6------|---------------8|-6---6------|---------8-8---8| 

Interlude 
G|-------------|----------------|-------------|----------------| 
D|-------------|----------------|-------------|----------------| 
A|-8---8-8-8--\|----------------|-8---8-8-8--\|----------------| 
E|-------------|-6-6--7-8-8-10-8|-------------|-6-6--7-8-8-10-8| 

verse 3 
G|-----------|-----------|-----------|-----------| 
D|-----------|-----------|-----------|-----------| 
A|-8---8-8---|-----------|-8---8-8---|-----------| 
E|-----------|-6---8-8---|-----------|-6---8-8---| 

G|-----------|-----------|-----------|----------| 
D|-----------|-----------|-----------|----------| 
A|-8---8-8---|-----7-7---|-8---8-8---|----------| 
E|-----------|-6---------|-----------|-6----8---| 

Interlude 
G|-------------|----------------|-------------|----------------| x2  
D|-------------|----------------|-------------|----------------| 
A|-8---8-8-8--\|----------------|-8---8-8-8--\|----------------| 
E|-------------|-6-6--7-8-8-10-8|-------------|-6-6--7-8-8-10-8| 

Bridge 
G|------------|----------------|------------|----------------| 
D|------------|---------5------|------------|----------------| 
A|-------6---6|-5-5-8-5---8-5--|-------6---6|-5-5-8-5--------| 
E|-6---6------|---------------8|-6---6------|---------3-3-5-3| 

G|------------|----------------|------------|----------------| 
D|------------|---------5------|------------|----------------| 
A|-------6---6|-5-5-8-5---8-5--|-------6---6|-5-5-8-5-----5--| 
E|-6---6------|---------------8|-6---6------|---------8-8---8| 

Outro 
G|------------|----------------|------------|----------------| 
D|------------|---------5------|------------|----------------| 
A|-------6---6|-5-5-8-5---8-5--|-------6---6|-5-5-8-5--------| 
E|-6---6------|---------------8|-6---6------|---------3-3-5-3| 

G|------------|----------------|------------|----------------| 
D|------------|---------5------|------------|----------------| 
A|-------6---6|-5-5-8-5---8-5--|-------6---6|-5-5-8-5-----5--| 
E|-6---6------|---------------8|-6---6------|---------8-8---8| 

G|------------|----------------|------------|----------------| 
D|------------|---------5------|------------|----------------| 
A|-------6---6|-5-5-8-5---8-5--|-------6---6|-5-5-8-5--------| 
E|-6---6------|---------------8|-6---6------|---------3-3-5-3| 

G|------------|----------------|------------|----------------| fade out  
D|------------|---------5------|------------|----------------| 
A|-------6---6|-5-5-8-5---8-5--|-------6---6|-5-5-8-5-----5--| 
E|-6---6------|---------------8|-6---6------|---------8-8---8| 


************************************ 

| \ Slide down  

************************************ 
		  

auto scroll beats size up size down change color hide chords drawings
tab show chords e-chords YouTube Clip e-chords hide all tabs e-chords go to top tab

share