The Gentlemen

First comp

The Gentlemen

tabs

by  PLOPP

save to print version add songbook text version e-mail correct tuner
chordsukulelecavacokeyboardtabbassdrumsharmonicaflute Guitar Pro
close

there isn't a video lesson for this song

chords

First comp

	  		This is a comp made by me (guitarrist in The Gentlemen). 
The song aint ready but its a good start and we will 
relese it soon. 
So here is the comp. 
< last tone played 
* bend 
Play quick with punk comp. 
 
Intro: 
|-----------------|------------------|------------------| 
|-----------------|------------------|------------------| 
|----------7---9--|--------7--9--11--|--9--7------------| 
|------9----------|-----9------------|--------9--7--9*--| 
|--7--------------|--7---------------|------------------| 
|-----------------|------------------|------------------| 
 
comp: 
|-----------------|------------------|------------------| 
|-----------------|------------------|------------------| 
|-----------------|------------------|------------------| 
|-9-<-<-<-<-<-<-<-|-7-<-<-<-<-<-<-<--|-9-<-<-<-<-<-<-<--| 
|-7-<-<-<-<-<-<-<-|-5-<-<-<-<-<-<-<--|-7-<-<-<-<-<-<-<--| 
|-----------------|------------------|------------------| 
 
|-----------------|------------------|------------------| 
|-----------------|------------------|------------------| 
|-----------------|------------------|------------------| 
|-----------------|-5-<-<-<-<-<-<-<--|-7-<-<-<-<-<-<-<--| 
|10-<-<-<-<-<-<-<-|-3-<-<-<-<-<-<-<--|-5-<-<-<-<-<-<-<--| 
|-8-<-<-<-<-<-<-<-|------------------|------------------| 
 
 
Thats all for now. if u like it please send a 
mail to [email protected] 
 
 

		  

See also:

tabs Box Car Racer - Letters To God (ver. 2) tabs Box Car Racer - Instrumental tabs The Cure - Fascination Street tabs Box Car Racer - My first punk song (ver. 2) tabs Blondie - Love At The Pier tabs Chumbawamba - Scapegoat (Keyboard part on guitar)
e-chords

Other versions:

tabs The Gentlemen - First comp
auto scroll beats size up size down change color hide chords drawings
tab show chords e-chords YouTube Clip e-chords hide all tabs e-chords go to top tab

share