The Gaslight Anthem

Too Much Blood

The Gaslight Anthem

tabs Beginner beginner

by  MAR-GOBBO

save to print version add songbook text version e-mail correct tuner
chordsukulelecavacokeyboardtabbassdrumsharmonicaflute Guitar Pro
close

there isn't a video lesson for this song

chords

Too Much Blood

	  		

Guitar 1 
Intro 
D|--------------------------------|--------------------------------| 
A|-3------------------------------|-4------------------------------| 
F|-4------------------------------|-4------------------------------| 
C|-5------------------------------|-4------------------------------| 
G|-5------------------------------|-2------------------------------| 
D|-3------------------------------|--------------------------------| 

D|--------------------------------|--------------------------------| 
A|-5---------------9--------------|-6--------5---------------------| 
F|-5---------------9--------------|-7--------5---------------------| 
C|-5---------------9--------------|-7--------5---------------------| 
G|-3---------------7--------------|-5--------3---------------------| 
D|--------------------------------|--------------------------------| 

D|--------------------------------|--------------------------------| 
A|-3------------------------------|-4------------------------------| 
F|-4------------------------------|-4------------------------------| 
C|-5------------------------------|-4------------------------------| 
G|-5------------------------------|-2------------------------------| 
D|-3------------------------------|--------------------------------| 

D|--------------------------------|--------------------------------| 
A|-5---------------9--------------|-6--------5---------------------| 
F|-5---------------9--------------|-7--------5---------------------| 
C|-5---------------9--------------|-7--------5---------------------| 
G|-3---------------7--------------|-5--------3---------------------| 
D|--------------------------------|--------------------0--0-h3-h5--| 

D|--------------------------------|--------------------------------| 
A|--------------------------------|--------------------------------| 
F|-------------5------------------|-------------5------------------| 
C|-7---7---7---5------------------|-7---7---7---5------------------| 
G|-7---7---7---3------------------|-7---7---7---3------------------| 
D|-5---5---5----------0--0-h3-h5--|-5---5---5----------0--0-h3-h5--| 

D|--------------------------------|--------------------------------| 
A|--------------------------------|--------------------------------| 
F|-------------5------------------|-5------------------------------| 
C|-7---7---7---5------------------|-5---7---5---7------------------| 
G|-7---7---7---3------------------|-3---7---5---7------------------| 
D|-5---5---5----------0--0-h3-h5--|-----5---3---5------0--0-h3-h5--| 

Verse 
D|--------------------------------|--------------------------------| 
A|--------------------------------|--------------------------------| 
F|-------------5------------------|-------------5------------------| 
C|-7---7---7---5------------------|-7---7---7---5------------------| 
G|-7---7---7---3------------------|-7---7---7---3------------------| 
D|-5---5---5----------0--0-h3-h5--|-5---5---5----------0--0-h3-h5--| 
PM .   .   .          .  .          .   .   .          .  . 
D|--------------------------------|--------------------------------| 
A|--------------------------------|-6-----------5------------------| 
F|-------------5------------------|-7-----------5------------------| 
C|-7---7---7---5------------------|-7-----------5------------------| x2 
G|-7---7---7---3------------------|-5-----------3------------------| 
D|-5---5---5----------0--0-h3-h5--|--------------------------------| 
   .   .   .          .  . 
Chorus 
D|--------------------------------|--------------------------------| 
A|-3------------------------------|-4------------------------------| 
F|-4------------------------------|-4------------------------------| 
C|-5------------------------------|-4------------------------------| 
G|-5------------------------------|-2------------------------------| 
D|-3------------------------------|--------------------------------| 

D|--------------------------------|--------------------------------| 
A|-5---------------9--------------|-6--------5---------------------| 
F|-5---------------9--------------|-7--------5---------------------| 
C|-5---------------9--------------|-7--------5---------------------| 
G|-3---------------7--------------|-5--------3---------------------| 
D|--------------------------------|--------------------------------| 

D|--------------------------------|--------------------------------| 
A|-3------------------------------|-4------------------------------| 
F|-4------------------------------|-4------------------------------| 
C|-5------------------------------|-4------------------------------| 
G|-5------------------------------|-2------------------------------| 
D|-3------------------------------|--------------------------------| 

D|--------------------------------|--------------------------------| 
A|-5---------------9--------------|-6--------5---------------------| 
F|-5---------------9--------------|-7--------5---------------------| 
C|-5---------------9--------------|-7--------5---------------------| 
G|-3---------------7--------------|-5--------3---------------------| 
D|--------------------------------|--------------------------------|     

D|--------------------------------|--------------------------------| 
A|o-------------------------------|-------------------------------o| 
F|--------------------------------|--------------------------------|Rest 
C|--------------------------------|--------------------------------|x5 
G|o-------------------------------|-------------------------------o| 
D|--------------------------------|--------------------------------| 

D|--------------------------------|--------------------------------| 
A|--------------------------------|--------------------------------| 
F|--------------------------------|--------------------------------| 
C|--------------------------------|--------------------------------| 
G|--------------------------------|--------------------------------| 
D|--------------------------------|--------------------0--0-h3-h5--| 

Post-chorus 
D|--------------------------------|--------------------------------| 
A|--------------------------------|--------------------------------| 
F|-------------5------------------|-------------5------------------| 
C|-7---7---7---5------------------|-7---7---7---5------------------| 
G|-7---7---7---3------------------|-7---7---7---3------------------| 
D|-5---5---5----------0--0-h3-h5--|-5---5---5----------0--0-h3-h5--| 

D|--------------------------------|--------------------------------| 
A|--------------------------------|--------------------------------| 
F|-------------5------------------|-5------------------------------| 
C|-7---7---7---5------------------|-5---7---5---7------------------| 
G|-7---7---7---3------------------|-3---7---5---7------------------| 
D|-5---5---5----------0--0-h3-h5--|-----5---3---5------0--0-h3-h5--| 

Repeat verse and chorus 

Solo 
D|--------------------------------|--------------------------------| 
A|--------------------------------|--------------------------------| 
F|-------------5------------------|-------------5------------------| 
C|-7---7---7---5------------------|-7---7---7---5------------------| 
G|-7---7---7---3------------------|-7---7---7---3------------------| 
D|-5---5---5----------0--0-h3-h5--|-5---5---5----------0--0-h3-h5--| 

D|--------------------------------|--------------------------------| 
A|--------------------------------|--------------------------------| 
F|-------------5------------------|-5------------------------------| 
C|-7---7---7---5------------------|-5---7---5---7------------------| 
G|-7---7---7---3------------------|-3---7---5---7------------------| 
D|-5---5---5----------0--0-h3-h5--|-----5---3---5------0--0-h3-h5--| 

D|--------------------------------|--------------------------------| 
A|--------------------------------|--------------------------------| 
F|-------------5------------------|-------------5------------------| 
C|-7---7---7---5------------------|-7---7---7---5------------------| 
G|-7---7---7---3------------------|-7---7---7---3------------------| 
D|-5---5---5----------0--0-h3-h5--|-5---5---5----------0--0-h3-h5--| 

D|--------------------------------|--------------------------------| 
A|--------------------------------|--------------------------------| 
F|-------------5------------------|-5------------------------------| 
C|-7---7---7---5------------------|-5---7---5---7------------------| 
G|-7---7---7---3------------------|-3---7---5---7------------------| 
D|-5---5---5----------0--0-h3-h5--|-----5---3---5------------------| 

Repeat chorus but extend rest until end 


Guitar 2 
Intro 
D|--------------------------------|--------------------------------| 
A|--------------------------------|---------------------------3/5--| 
F|--------------------------------|-4------------------------------| 
C|-5------------------------5-/7--|--------------------------------| 
G|--------------------------------|--------------------------------| 
D|--------------------------------|--------------------------------| 

D|---------3/5\3------------------|-----h-p------------------------| 
A|-----------------5p3p1---1/3-5--|-3---353-1----------------------| 
F|-5------------------------------|--------------------------------| 
C|--------------------------------|---------------------------5/7--| 
G|--------------------------------|--------------------------------| 
D|--------------------------------|--------------------------------| 

D|--------------------------------|--------------------------------| 
A|--------------------------------|---------------------------3/5--| 
F|--------------------------------|-4------------------------------| 
C|-5------------------------5-/7--|--------------------------------| 
G|--------------------------------|--------------------------------| 
D|--------------------------------|--------------------------------| 

D|---------3/5\3------------------|-----h-p------------------------| 
A|-----------------5p3p1---1/3-5--|-3---353-1----------------------| 
F|-5------------------------------|--------------------------------| 
C|--------------------------------|--------------------------------| 
G|--------------------------------|--------------------------------| 
D|--------------------------------|--------------------0--0-h3-h5--| 

D|--------------------------------|--------------------------------| 
A|--------------------------------|--------------------------------| 
F|-------------5------------------|-------------5------------------| 
C|-7---7---7---5------------------|-7---7---7---5------------------| 
G|-7---7---7---3------------------|-7---7---7---3------------------| 
D|-5---5---5----------0--0-h3-h5--|-5---5---5----------0--0-h3-h5--| 

D|--------------------------------|--------------------------------| 
A|--------------------------------|--------------------------------| 
F|-------------5------------------|-5------------------------------| 
C|-7---7---7---5------------------|-----7---5---7------------------| 
G|-7---7---7---3------------------|--------------------------------| 
D|-5---5---5----------0--0-h3-h5--|--------------------0--0-h3-h5--| 

Verse 
D|--------------------------------|--------------------------------| 
A|--------------------------------|--------------------------------| 
F|-------------5------------------|-------------5------------------| 
C|-7---7---7---5------------------|-7---7---7---5------------------| 
G|-7---7---7---3------------------|-7---7---7---3------------------| 
D|-5---5---5----------0--0-h3-h5--|-5---5---5----------0--0-h3-h5--| 
PM .   .   .          .  .          .   .   .          .  . 
D|--------------------------------|--------------------------------| 
A|--------------------------------|--------------------------------| 
F|-------------5------------------|-7-b(9)r-7---5------------------| 
C|-7---7---7---5------------------|--------------------------------| 
G|-7---7---7---3------------------|--------------------------------| 
D|-5---5---5----------0--0-h3-h5--|--------------------------------| 
   .   .   .          .  . 
D|--------------------------------|--------------------------------| 
A|--------------------------------|--------------------------------| 
F|-------------5------------------|-------------5------------------| 
C|-7---7---7---5------------------|-7---7---7---5------------------| 
G|-7---7---7---3------------------|-7---7---7---3------------------| 
D|-5---5---5----------0--0-h3-h5--|-5---5---5----------0--0-h3-h5--| 
   .   .   .          .  .          .   .   .          .  . 
D|--------------------------------|--------------------------------| 
A|--------------------------------|--------------------------------| 
F|-------------5------------------|-7-b(9)r-7---5------------------| 
C|-7---7---7---5------------------|-----------------------------7--| 
G|-7---7---7---3------------------|--------------------------------| 
D|-5---5---5----------0--0-h3-h5--|--------------------------------| 
   .   .   .          .  . 
Chorus 
D|--------------------------------|--------------------------------| 
A|--------------------------------|---------------------------3/5--| 
F|--------------------------------|-4------------------------------| 
C|-5------------------------5-/7--|--------------------------------| 
G|--------------------------------|--------------------------------| 
D|--------------------------------|--------------------------------| 

D|---------3/5\3------------------|-----h-p------------------------| 
A|-----------------5p3p1---1/3-5--|-3---353-1----------------------| 
F|-5------------------------------|--------------------------------| 
C|--------------------------------|---------------------------5/7--| 
G|--------------------------------|--------------------------------| 
D|--------------------------------|--------------------------------| 

D|--------------------------------|--------------------------------| 
A|--------------------------------|---------------------------3/5--| 
F|--------------------------------|-4------------------------------| 
C|-5------------------------5-/7--|--------------------------------| 
G|--------------------------------|--------------------------------| 
D|--------------------------------|--------------------------------| 

D|---------3/5\3------------------|-----h-p------------------------| 
A|-----------------5p3p1---1/3-5--|-3---353-1----------------------| 
F|-5------------------------------|--------------------------------| 
C|--------------------------------|--------------------------------| 
G|--------------------------------|--------------------------------| 
D|--------------------------------|--------------------------------| 
Play softly 
D|15--15--15--15--15--15--13--13--|13--13--13--13--12--12--12--12--| 
A|--------------------------------|--------------------------------| 
F|--------------------------------|--------------------------------| 
C|--------------------------------|--------------------------------| 
G|--------------------------------|--------------------------------| 
D|--------------------------------|--------------------------------| 

D|12--12--------------------------|15--15--15--15--15--15--13--13--| 
A|--------13--13--13--13--13--13--|--------------------------------| 
F|--------------------------------|--------------------------------| 
C|--------------------------------|--------------------------------| 
G|--------------------------------|--------------------------------| 
D|--------------------------------|--------------------------------| 

D|13--13--13--13--12--12--12--12--|12--12--------------------------| 
A|--------------------------------|--------13--13--13--13--13--13--| 
F|--------------------------------|--------------------------------| 
C|--------------------------------|--------------------------------| 
G|--------------------------------|--------------------------------| 
D|--------------------------------|--------------------------------| 

D|15--15--15--15--15--15--13--13--|13--13--13--13--12--12--12--12--| 
A|--------------------------------|--------------------------------| 
F|--------------------------------|--------------------------------| 
C|--------------------------------|--------------------------------| 
G|--------------------------------|--------------------------------| 
D|--------------------------------|--------------------------------| 

D|12--12--------------------------|15--15--15--15--15--15--13--13--| 
A|--------13--13--13--13--13--13--|--------------------------------| 
F|--------------------------------|--------------------------------| 
C|--------------------------------|--------------------------------| 
G|--------------------------------|--------------------------------| 
D|--------------------------------|--------------------------------| 

D|13--13--13--13--12--------------|--------------------------------| 
A|--------------------------------|--------------------------------| 
F|--------------------------------|--------------------------------| 
C|--------------------------------|--------------------------------| 
G|--------------------------------|--------------------------------| 
D|--------------------------------|--------------------0--0-h3-h5--| 

Post-chorus 
D|--------------------------------|--------------------------------| 
A|--------------------------------|--------------------------------| 
F|-------------5------------------|-------------5------------------| 
C|-7---7---7---5------------------|-7---7---7---5------------------| 
G|-7---7---7---3------------------|-7---7---7---3------------------| 
D|-5---5---5----------0--0-h3-h5--|-5---5---5----------0--0-h3-h5--| 

D|--------------------------------|--------------------------------| 
A|--------------------------------|--------------------------------| 
F|-------------5------------------|-5------------------------------| 
C|-7---7---7---5------------------|-----7---5---7------------------| 
G|-7---7---7---3------------------|--------------------------------| 
D|-5---5---5----------0--0-h3-h5--|--------------------0--0-h3-h5--| 

Repeat verse and chorus                                                                      

Solo (continue to pick bend notes) 
D|--------------------------------|--------------------------------| 
A|-5b-----------------------------|-----------------5b------------5| 
F|--------------------------------|-7p5---------5h7----------------| 
C|--------------------------------|-----7---5h7--------------------| 
G|--------------------------------|--------------------------------| 
D|--------------------------------|--------------------------------| 

D|--------------------------------|--------------------------------| 
A|--------------------------------|--------------------------------| 
F|-7p5-----7-5-----------5-7p5----|-5------------------------------| 
C|-----7-------7-5---5-7-------7--|-----7---5---7------------------| 
G|-----------------5--------------|--------------------------------| 
D|--------------------------------|--------------------------------| 

D|-12---------------------------12|-10p8---------8h10-8-10/12b-----| 
A|-15b----------------------------|------10--8h10------------------| 
F|--------------------------------|--------------------------------| 
C|--------------------------------|--------------------------------| 
G|--------------------------------|--------------------------------| 
D|--------------------------------|--------------------------------| 

D|-12-10br8---8-10br8--8-10-8-----|-8------------------------------| 
A|----------10-------10-------10--|-----10--8---10-----------------| 
F|--------------------------------|--------------------------------| 
C|--------------------------------|--------------------------------| 
G|--------------------------------|--------------------------------| 
D|--------------------------------|--------------------------------| 

 
		  

See also:

tabs Red Hot Chili Peppers - Road Trippin' tabs Red Hot Chili Peppers - Under the brigde tabs Audioslave - Be Yourself tabs Audioslave - Like a Stone tabs Sublime - What I Got tabs Red Hot Chili Peppers - Snow hey oh
e-chords

Other versions:

tabs The Gaslight Anthem - Too Much Blood
auto scroll beats size up size down change color hide chords drawings
tab show chords e-chords YouTube Clip e-chords hide all tabs e-chords go to top tab

share