The Drifters

Ruby Baby

The Drifters

tabs

by  PAULLET3

save to print version add songbook text version e-mail correct tuner
chordsukulelecavacokeyboardtabbassdrumsharmonicaflute Guitar Pro
close

there isn't a video lesson for this song

chords

Ruby Baby

	  		
Verse 

   E    
E|---------------------------------|---------------------------------|---------------------------------| 
B|-----0-------2--p0-------2-------|-3b------2-------0---------------|-----0-------2--p0-------2-------| 
G|---------------------------------|-------------------------1-------|---------------------------------| 
D|---------------------2-------2---|-----2-------2-------2-------2---|---------------------2-------2---| 
A|---------2---------------2-------|---------2---------------2-------|---------2---------------2-------| 
E|-0---------------0---------------|-0---------------0---------------|-0---------------0---------------| 
       Ru-     by, Ru-     by,       Ru-     by,     ba-     by,           Ru-     by, Ru-     by,      
       Ru-     by, Ru-     by,       Ru-     by,     ba-     by,           Ru-     by, Ru-     by,      
       Ru-     by, Ru-     by,       Ru-     by,     ba-     by,           Ru-     by, Ru-     by,      


E|---------------------------------|---------------------------------|---------------------------------| 
B|-3b------2-------0---------------|-0-------2-------0-------2---3---|-----2-------0---------------0---| 
G|-------------------------1-------|---------------------------------|---------------------2-----------| 
D|-----2-------2-------2-------2---|-----2-------2-------2-----------|---------------------------------| 
A|---------2---------------2-------|---------2---------------2-------|---------2---------------2-------| 
E|-0---------------0---------------|-0---------------0---------------|-0---------------0---------------| 
   Ru-     by,     ba-     by!       I've    got a   girl and    Ruby      is      her             name. 
   Ru-     by,     ba-     by!       Each    time I  see you,    baby,             my heart        cries. 
   Ru-     by,     ba-     by!       I've    got a   girl and    Ruby      is      her             name. 


E|---------------------------------|---------------------------------|---------------------------------| 
B|-----0-------2--p0-------2-------|-3b------2-------0---------------|-0-------2-------0-------2---3---| 
G|-1-------------------------------|-------------------------1-------|---------------------------------| 
D|---------------------2-------2---|-----2-------2-------2-------2---|-----2-------2-------2-----------| 
A|---------2---------------2-------|---------2---------------2-------|---------2---------------2-------| 
E|-0---------------0---------------|-0---------------0---------------|-0---------------0---------------| 
      (Ru-     by, Ru-     by,       Ru-     by,     ba-     by)       She     don't   love me but I  
      (Ru-     by, Ru-     by,       Ru-     by,     ba-     by)       I'm a-gonna     steal you away 
      (Ru-     by, Ru-     by,       Ru-     by,     ba-     by)       I'd give the    world just to set 

E|---------------------------------|---------------------------------|---------------------------------| 
B|-----2-------0---------------0---|-----0-------2--p0-------2-------|-3b------2-------0---------------| 
G|---------------------2-----------|-1-------------------------------|-------------------------1-------| 
D|---------------------------------|---------------------2-------2---|-----2-------2-------2-------2---| 
A|---------2---------------2-------|---------2---------------2-------|---------2---------------2-------| 
E|-0---------------0---------------|-0---------------0---------------|-0---------------0---------------| 
   love her    just the        same.     (Ru-     by, Ru-     by,       Ru-     by,     ba-     by) 
       from    all     those   guys.     (Ru-     by, Ru-     by,       Ru-     by,     ba-     by) 
       her     heart   a-      flame.    (Ru-     by, Ru-     by,       Ru-     by,     ba-     by) 

   A                                                                   E 
E|-----0-------2--p0-------2-------|-----3b------2--p0---------------|---------------------------------| 
B|---------------------------------|-------------------------2-------|-----0-------2--p0-------2-------| 
G|---------------------2-------2---|---------------------2-------2---|---------------------------------| 
D|---------2---------------2-------|---------2---------------2-------|---------------------2-------2---| 
A|-0---------------0---------------|-0---------------0---------------|---------2---------------2-------| 
E|---------------------------------|---------------------------------|-0---------------0---------------| 
   Oh, Ruby,       Ruby,                 I           want you,             like    a ghost     I'm  
   Oh, from    the sunny                 day I met you,                    I made a bet that  
   Oh,        some lovin',               money      too,                   gonna       give     it  

                                     B7 
E|---------------------------------|-----2-------2---2-------2-------|-2b------0-----------------------| 
B|-----3b------2--p0---------------|---------------------------------|-----------------4-------2-------| 
G|-------------------------1-------|---------------------2-------2---|-----2-------2-------2-------2---| 
D|---------------------2-------2---|---------1-----------------------|---------1-----------------------| 
A|---------2---------------2-------|-2---------------2-------2-------|-2---------------2-------2-------| 
E|-0---------------0---------------|---------------------------------|---------------------------------| 
   a-  gonna       haunt  you.           Ruby,       Ruby,             when    will    you     be     
       I      would get   you.           Ruby,       Ruby,             when    will    you     be 
       all      to you.                  Ruby,       Ruby,             when    will    you     be 

   E 
E|---------------------------------|---------0-----------------------| 
B|-0-------------------------------|-------------0-------------------| 
G|---------------------------------|---------------------------------| 
D|-----2-------2-------2-------2---|-----2---------------2-------2---| 
A|---------2---------------2-------|---------2---------------2-------| 
E|-0---------------0---------------|-0---------------0---------------| 
   mine?                                     Sometime. 
   mine? 
   mine? 


************************************       
              
| b    Bend, use just light bends 
| p    Pull-off 
                                           
************************************ 
		  

Full key step upFull key step up
Half key step upHalf key step up
Half key step downHalf key step down
Full key step downFull key step down
hide glossary

See also:

tabs Dire Straits - Brothers in Arms tabs The Shadows - Apache tabs Status Quo - Whatever you want tabs Yes - Roundabout tabs Dire Straits - Sultans of Swing tabs Queen - Bohemian Rhapsody
e-chords

Other versions:

tabs The Drifters - Ruby Baby
auto scroll beats size up size down change color hide chords drawings
tab show chords e-chords YouTube Clip e-chords hide all tabs e-chords go to top tab

share