The Dodos

Companions

The Dodos

tabs

by  PAULLET3

save to print version add songbook text version e-mail correct tuner
chordsukulelecavacokeyboardtabbassdrumsharmonicaflute Guitar Pro
close

there isn't a video lesson for this song

chords

Companions

	  		

Intro: 

e|-----5---3---3---3---3---5--3-----3---|---------|---------| 
B|---5---5---5---5---5-----------5------|---------|---------| 
G|--------------------------------------|---------|---------| 
D|--------------------------------------|---------|---------| 
A|--------------------------------------|---------|---------| 
E|--------------------------------------|---------|---------| 

e|-----3---3---3---0--2--3---0--2--3----|---------|---------| 
B|---2---2---2---2---------2----------2-|---------|---------| 
G|--------------------------------------|---------|---------| 
D|--------------------------------------|---------|---------| 
A|--------------------------------------|---------|---------| 
E|--------------------------------------|---------|---------| 

e|-----2---2---2---0--2--0---2--0---2---|---------|---------| 
B|---3---3---3---3---------3------3-----|---------|---------| 
G|--------------------------------------|---------|---------| 
D|--------------------------------------|---------|---------| 
A|--------------------------------------|---------|---------| 
E|--------------------------------------|---------|---------| 

e|-----2---2---2-------0--2-----0--2----|---------|---------| 
B|---0---0---0---0--3---------3-------0-|---------|---------| 
G|--------------------------------------|---------|---------| 
D|--------------------------------------|---------|---------| 
A|--------------------------------------|---------|---------| 
E|--------------------------------------|---------|---------| 

e|-----5---3---3---3---3---5--3-----3---|---------|---------| 
B|---5---5---5---5---5-----------5------|---------|---------| 
G|--------------------------------------|---------|---------| 
D|--------------------------------------|---------|---------| 
A|--------------------------------------|---------|---------| 
E|--------------------------------------|---------|---------| 

e|-----3---3---3---0--2--3---0--2--3----|---------|---------| 
B|---2---2---2---2---------2----------2-|---------|---------| 
G|--------------------------------------|---------|---------| 
D|--------------------------------------|---------|---------| 
A|--------------------------------------|---------|---------| 
E|--------------------------------------|---------|---------| 

e|-----2---2---2---0--2--0---2--0---2---|---------|---------| 
B|---3---3---3---3---------3------3-----|---------|---------| 
G|--------------------------------------|---------|---------| 
D|--------------------------------------|---------|---------| 
A|--------------------------------------|---------|---------| 
E|--------------------------------------|---------|---------| 

e|-----2---2---2-------0--2-----0--2----|---------|---------| 
B|---0---0---0---0--3---------3-------0-|---------|---------| 
G|--------------------------------------|---------|---------| 
D|--------------------------------------|---------|---------| 
A|--------------------------------------|---------|---------| 
E|--------------------------------------|---------|---------| 

Intro part 2:) 

e|-----2---2---2---2--0----0------------|---------|---------| 
B|-----------------------3----3------3--|---------|---------| 
G|--0----0---0--------------------0-----|---------|---------| 
D|--------------------------------------|---------|---------| 
A|--------------------------------------|---------|---------| 
E|--------------------------------------|---------|---------| 


e|-----0---0---0-----0--2----0--2-------|---------|---------| 
B|----------------3-------3-------------|---------|---------| 
G|--2----2---2---------------------2----|---------|---------| 
D|--------------------------------------|---------|---------| 
A|--------------------------------------|---------|---------| 
E|--------------------------------------|---------|---------| 

e|-----2---2---2---2--0---0-------------|---------|---------| 
B|---0---0---0----------3----3--0--3----|---------|---------| 
G|--------------------------------------|---------|---------| 
D|--------------------------------------|---------|---------| 
A|--------------------------------------|---------|---------| 
E|--------------------------------------|---------|---------| 


e|-----2---2---2------0--2------0--2----|---------|---------| 
B|---0---0---0-----3---------3-------0--|---------|---------| 
G|--------------------------------------|---------|---------| 
D|--------------------------------------|---------|---------| 
A|--------------------------------------|---------|---------| 
E|--------------------------------------|---------|---------| 

e|-----2---2---2---2--0----0------------|---------|---------| 
B|-----------------------3----3------3--|---------|---------| 
G|--0----0---0--------------------0-----|---------|---------| 
D|--------------------------------------|---------|---------| 
A|--------------------------------------|---------|---------| 
E|--------------------------------------|---------|---------| 


e|-----0---0---0-----0--2----0--2-------|---------|---------| 
B|----------------3-------3-------------|---------|---------| 
G|--2----2---2---------------------2----|---------|---------| 
D|--------------------------------------|---------|---------| 
A|--------------------------------------|---------|---------| 
E|--------------------------------------|---------|---------| 

e|-----2---2---2---2--0---0-------------|---------|---------| 
B|---0---0---0----------3----3--0--3----|---------|---------| 
G|--------------------------------------|---------|---------| 
D|--------------------------------------|---------|---------| 
A|--------------------------------------|---------|---------| 
E|--------------------------------------|---------|---------| 


e|-----2---2---2------0--2------0--2----|---------|---------| 
B|---0---0---0-----3---------3-------0--|---------|---------| 
G|--------------------------------------|---------|---------| 
D|--------------------------------------|---------|---------| 
A|--------------------------------------|---------|---------| 
E|--------------------------------------|---------|---------|  
		  

auto scroll beats size up size down change color hide chords drawings
tab show chords e-chords YouTube Clip e-chords hide all tabs e-chords go to top tab

share