The Dillinger Escape Plan

Farewell, Mona Lisa

The Dillinger Escape Plan

tabs Expert expert

by  ABELAMIN

save to print version add songbook text version e-mail correct tuner
chordsukulelecavacokeyboardtabbassdrumsharmonicaflute Guitar Pro
close

there isn't a video lesson for this song

chords

Farewell, Mona Lisa

	  		

e|--2-------4---5-----------1-----------------------------------------| 
B|--2-------4---5-----------1-----------------------------------------| 
G|--3-------5---6-----------4-----------------------------------------| 
D|--4-------6---7-----------3-----------------------------------------| 
A|--4-------6---7-----------3-----------------------------------------| 
E|--2-------4---5-----------1-----------------------------------------| 

  
e|-----------------------------------------------------------------------| 
B|-----------------------------------------------------------------------| 
G|-----------------------------------------------------------------------|  x4 
D|--4-4-4---4-4-4---4-4-4-5-5-5-4-4-4------------------------------------| 
A|--3-3-3---3-3-3---3-3-3-4-4-4-3-3-3------------------------------------| 
E|--2-2-2---2-2-2---2-2-2-3-3-3-2-2-2------------------------------------| 

  
e|-----------------------------------------------------------------------| 
B|-----------------------------------------------------------------------| 
G|-----------------------------------------------------------------------|   x2 
D|--2--2--2--5--5--5--4--4--4--3-3-3-3-----------------------------------| 
A|--2--2--2--5--5--5--4--4--4--3-3-3-3-----------------------------------| 
E|--0--0--0--3--3--3--2--2--2--1-1-1-1-----------------------------------| 

 
e|-----------------------------------------------------------------------| 
B|-----------------------------------------------------------------------| 
G|-----------------------------------------------------------------------|  x2 
D|--4-4-4---4-4-4---4-4-4-5-5-5-4-4-4------------------------------------| 
A|--3-3-3---3-3-3---3-3-3-4-4-4-3-3-3------------------------------------| 
E|--2-2-2---2-2-2---2-2-2-3-3-3-2-2-2------------------------------------| 

e|--------------------------------------------------------------------| 
B|-16--16-16-16---16--------------------------------------------------| 
G|-x---x--x--x----x---------------------------------------------------| 
D|-13--13-13-13---13--------------------------------------------------| 
A|--------------------------------------------------------------------| 
E|--------------------------------------------------------------------| 

  
e|-----------------------------------------------------------------------| 
B|-----------------------------------------------------------------------| 
G|-----------------------------------------------------------------------|   x2 
D|--2--2--2--5--5--5--4--4--4--3--3--3---2--2--2-------------------------| 
A|--2--2--2--5--5--5--4--4--4--3--3--3---2--2--2---4----3----2-----------| 
E|--0--0--0--3--3--3--2--2--2--1--1--1---0--0--0--3-3--2-2--1-1----------| 

e|-----| 
B|-----| 
G|-----| 
D|-2---|    Quick Clean part 
A|-2---| 
E|-0---| 

 

e|-------------------------------------------------------------------| 
B|-------------6-5---------------------------------------------------| 
G|-7-0-7-8-7-0-----8-7-6-5-----------------5-7-6-8--11-11-11-11------|  x2 
D|---------------------------------5-7-6-8----------11-11-11-11------| 
A|-------------------------5-6-7-8------------------9--9--9--9-------| 
E|-------------------------------------------------------------------| 

e|---------------------------------------------------------------------| 
B|--------------8-7----------------------------------------------------| 
G|-9-0-9-10-9-0-----10-9-8-7-------------------7-9-8-10--13-13-13-13---|  x2 
D|------------------------------------7-9-8-10-----------13-13-13-13---| 
A|---------------------------7-8-9-10--------------------11-11-11-11---| 
E|---------------------------------------------------------------------| 

 
e|-----------------------------------------------------------------| 
B|-----------------------------------------------------------------| 
G|-----------------------------------------------------------------|  x2 
D|-3---3---3----3-3-3---3---3-3---3---3-3--------------------------| 
A|-2---2---2----2-2-2---2---2-2---2---2-2--------------------------| 
E|-1---1---1----1-1-1---1---1-1---1---1-1--------------------------| 

e|-7---8---10-------7---8-------------------------------------------------| 
B|---7---8----9---7---7----4--4--4--7--7--7--10--10-10--13-13-13-13-------| 
G|--------------8----------5--5--5--8--8--8--11--11-11--14-14-14-14-------| 
D|-------------------------x--x--x--x--x--x--x---x--x---x--x--x--x--------| 
A|-------------------------3--3--3--6--6--6--9---9--9---12-12-12-12-------| 
E|------------------------------------------------------------------------| 

 

e|-------------------------------------------------------------------| 
B|-------------6-5---------------------------------------------------| 
G|-7-0-7-8-7-0-----8-7-6-5-----------------5-7-6-8--11-11-11-11------|  x2 
D|---------------------------------5-7-6-8----------11-11-11-11------| 
A|-------------------------5-6-7-8------------------9--9--9--9-------| 
E|-------------------------------------------------------------------| 

 
e|--------------------------------------------------------------------| 
B|-8-----13----12-------10--------------------------------------------| 
G|-7-----12----11-------9---------------------------------------------| 
D|-5-----10----9--------7---------------------------------------------| 
A|--------------------------------------------------------------------| 
E|--------------------------------------------------------------------| 

e|-7---8---10-------7---8-------------------------------------------------| 
B|---7---8----9---7---7----4--4--4--7--7--7--10--10-10--13-13-13-13-------| 
G|--------------8----------5--5--5--8--8--8--11--11-11--14-14-14-14-------| x2 
D|-------------------------x--x--x--x--x--x--x---x--x---x--x--x--x--------| 
A|-------------------------3--3--3--6--6--6--9---9--9---12-12-12-12-------| 
E|------------------------------------------------------------------------| 

 

e|--------------------------------------------------------------| 
B|--------------------------------------------------------------| 
G|------10----11------9------10-----10--------------------------| 
D|---10----10------10-----10------10----------------------------| 
A|-8-------------8------8---------------------------------------| 
E|--------------------------------------------------------------| 

e|--------------------------------------------------------------| 
B|--------------------------------------------------------------| 
G|--------10-11----11-9----9-10-----10--------------------------| 
D|-----10-------10------10-------10-----------------------------| 
A|---9----------------------------------------------------------| 
E|-9------------------------------------------------------------| 

e|--------------------------------------------------------------| 
B|--------------------------------------------------------------| 
G|-------6-5-----5---5----6-------------------------------------| 
D|-----7-------7---7----7---7-----------------------------------| 
A|---7----------------------------------------------------------| 
E|-5------------------------------------------------------------| 

e|--------------------------------------------------------------| 
B|--------------------------------------------------------------| 
G|-------2------------------------------------------------------| 
D|-----3--------------------------------------------------------| 
A|---3----------------------------------------------------------| 
E|-1------------------------------------------------------------| 

e|--------------------------------------------------------------| 
B|--------------------------------------------------------------| 
G|------10----11------9------10-----10--------------------------| 
D|---10----10------10-----10------10----------------------------| 
A|-8-------------8------8---------------------------------------| 
E|--------------------------------------------------------------| 

e|--------------------------------------------------------------| 
B|--------------------------------------------------------------| 
G|--------10-11----11-9----9-10-----10--------------------------| 
D|-----10-------10------10-------10-----------------------------| 
A|---9----------------------------------------------------------| 
E|-9------------------------------------------------------------| 

e|--------------------------------------------------------------| 
B|--------------------------------------------------------------| 
G|-------6-5-----5---5----6-------------------------------------| 
D|-----7-------7---7----7---7-----------------------------------| 
A|---7----------------------------------------------------------| 
E|-5------------------------------------------------------------| 

e|--------------------------------------------------------------| 
B|--------------------------------------------------------------| 
G|-------2------------------------------------------------------| 
D|-----3--------------------------------------------------------| 
A|---3----------------------------------------------------------| 
E|-1------------------------------------------------------------| 

e|--------------------------------------------------------------| 
B|--------------------------------------------------------------| 
G|------10----11------9------10-----10--------------------------| 
D|---10----10------10-----10------10----------------------------| 
A|-8-------------8------8---------------------------------------| 
E|--------------------------------------------------------------| 

e|--------------------------------------------------------------| 
B|--------------------------------------------------------------| 
G|--------10-11----11-9----9-10-----10--------------------------| 
D|-----10-------10------10-------10-----------------------------| 
A|---9----------------------------------------------------------| 
E|-9------------------------------------------------------------| 

e|--------------------------------------------------------------| 
B|--------------------------------------------------------------| 
G|-------6-5-----5---5--6/10-10---------------------------------| 
D|-----7-------7---7--------------------------------------------| 
A|---7----------------------------------------------------------| 
E|-5------------------------------------------------------------| 

e|--------------------------------------------------------------| 
B|--------------------------------------------------------------| 
G|-------2------------------------------------------------------| 
D|-----3--------------------------------------------------------| 
A|---3----------------------------------------------------------| 
E|-1------------------------------------------------------------| 

e|--------------------------------------------------------------| 
B|--------------------------------------------------------------| 
G|------10----11------9------10-----10--------------------------| 
D|---10----10------10-----10------10----------------------------| 
A|-8-------------8------8---------------------------------------| 
E|--------------------------------------------------------------| 

e|--------------------------------------------------------------| 
B|--------------------------------------------------------------| 
G|--------10-11----11-9----9-10-----10--------------------------| 
D|-----10-------10------10-------10-----------------------------| 
A|---9----------------------------------------------------------| 
E|-9------------------------------------------------------------| 

e|--------------------------------------------------------------| 
B|--------------------------------------------------------------| 
G|-------6-5-----5---5--6/10-10---------------------------------| 
D|-----7-------7---7--------------------------------------------| 
A|---7----------------------------------------------------------| 
E|-5------------------------------------------------------------| 

e|--------------------------------------------------------------| 
B|--------------------------------------------------------------| 
G|-------2------------------------------------------------------| 
D|-----3--------------------------------------------------------| 
A|---3----------------------------------------------------------| 
E|-1------------------------------------------------------------| 

 

  
e|---------------------------------------------------------------| 
B|---------------------------------------------------------------| 
G|-----------------11-11-11-11--9-9-9-9--10-10-10-10-------------| 
D|-2--3--3--3--3---x--x--x--x---x-x-x-x--x--x--x--x--------------| 
A|-2--3--3--3--3---8--8--8--8---8-8-8-8--8--8--8--8--------------| 
E|-0--1--1--1--1-------------------------------------------------| 

e|--------------------------------------------------------------| 
B|--------------------------------------------------------------| 
G|----------11-11-11-11-9-9-9-9--10-10-10-10--------------------| 
D|-x-x-x-x--x--x--x--x--x-x-x-x--x--x--x--x---------------------| 
A|-x-x-x-x--x--x--x--x--x-x-x-x--x--x--x--x---------------------| 
E|-9-9-9-9--9--9--9--9--9-9-9-9--9--9--9--9---------------------| 

e|--------------------------------------------------------------| 
B|--------------------------------------------------------------| 
G|-6-6-6-6-6-6-6-6-5-5-5-5-6-6-6-6------------------------------| 
D|-7-7-7-7-7-7-7-7-7-7-7-7-7-7-7-7------------------------------| 
A|-7-7-7-7-7-7-7-7-7-7-7-7-7-7-7-7------------------------------| 
E|-5-5-5-5-5-5-5-5-5-5-5-5-5-5-5-5------------------------------| 

  
e|---------------------------------------------------------------| 
B|---------------------------------------------------------------| 
G|---------------------------------------------------------------| 
D|---3-3-3-3-3-3-3-3-3-3-3-3-3-3-3-3-----------------------------| 
A|---3-3-3-3-3-3-3-3-3-3-3-3-3-3-3-3-----------------------------| 
E|-0-1-1-1-1-1-1-1-1-1-1-1-1-1-1-1-1-----------------------------| 

e|--------------------------------------------------------------| 
B|--------------------------------------------------------------| 
G|-----------------11-11-11-11--9-9-9-9--10-10-10-10------------| 
D|-2--3--3--3--3---x--x--x--x---x-x-x-x--x--x--x--x-------------| 
A|-2--3--3--3--3---8--8--8--8---8-8-8-8--8--8--8--8-------------| 
E|-0--1--1--1--1------------------------------------------------| 

e|--------------------------------------------------------------| 
B|--------------------------------------------------------------| 
G|----------11-11-11-11-9-9-9-9--10-10-10-10--------------------| 
D|-x-x-x-x--x--x--x--x--x-x-x-x--x--x--x--x---------------------| 
A|-x-x-x-x--x--x--x--x--x-x-x-x--x--x--x--x---------------------| 
E|-9-9-9-9--9--9--9--9--9-9-9-9--9--9--9--9---------------------| 

e|--------------------------------------------------------------| 
B|--------------------------------------------------------------| 
G|-6-6-6-6-6-6-6-6-5-5-5-5-6-6-6-6------------------------------| 
D|-7-7-7-7-7-7-7-7-7-7-7-7-7-7-7-7------------------------------| 
A|-7-7-7-7-7-7-7-7-7-7-7-7-7-7-7-7------------------------------| 
E|-5-5-5-5-5-5-5-5-5-5-5-5-5-5-5-5------------------------------| 

  
e|---------------------------------------------------------------| 
B|---------------------------------------------------------------| 
G|---------------------------------------------------------------| 
D|---3-3-3-3-3-3-3-3-3-3-3-3-3-3-3-3-----------------------------| 
A|---3-3-3-3-3-3-3-3-3-3-3-3-3-3-3-3-----------------------------| 
E|-0-1-1-1-1-1-1-1-1-1-1-1-1-1-1-1-1-----------------------------| 


e|-------------0--------------------------------------------------| 
B|-------------0--------------------------------------------------| 
G|-2----4--5---1--------6-6-6-6-6-6--5-5--4-4-4-4-4-4-4-4---------| 
D|-3----5--6---2--------6-6-6-6-6-6--5-5--4-4-4-4-4-4-4-4---------| 
A|-3----5--6---2--------4-4-4-4-4-4--3-3--2-2-2-2-2-2-2-2---------| 
E|-1----3--4---0--------------------------------------------------| 

  
e|---------------------------------------------------------------| 
B|---------------------------------------------------------------| 
G|---------------------------------------------------------------| 
D|---3-3-3-3-3-3-3-3-3-3-3-3-3-3-3-3-----------------------------| 
A|---3-3-3-3-3-3-3-3-3-3-3-3-3-3-3-3-----------------------------| 
E|-0-1-1-1-1-1-1-1-1-1-1-1-1-1-1-1-1-----------------------------| 

e|-------------0--------------------------------------------------| 
B|-------------0--------------------------------------------------| 
G|-2----4--5---1--------6-6-6-6-6-6--5-5--4-4-4-4-4-4-4-4---------| 
D|-3----5--6---2--------6-6-6-6-6-6--5-5--4-4-4-4-4-4-4-4---------| 
A|-3----5--6---2--------4-4-4-4-4-4--3-3--2-2-2-2-2-2-2-2---------| 
E|-1----3--4---0--------------------------------------------------| 


e|---------------------------------------------------------------| 
B|---------------------------------------------------------------| 
G|---------------------------------------------------------------| 
D|---3-3-3-3-3-3-3-3-3-3-3-3-3-3-3-3-----------------------------| 
A|---3-3-3-3-3-3-3-3-3-3-3-3-3-3-3-3-----------------------------| 
E|-0-1-1-1-1-1-1-1-1-1-1-1-1-1-1-1-1-----------------------------| 

 
e|---------------------------------------------------------------| 
B|---------------------------------------------------------------| 
G|-----------------11-11-11-11--9-9-9-9--10-10-10-10-------------| 
D|-2--3--3--3--3---x--x--x--x---x-x-x-x--x--x--x--x--------------| 
A|-2--3--3--3--3---8--8--8--8---8-8-8-8--8--8--8--8--------------| 
E|-0--1--1--1--1-------------------------------------------------| 

e|--------------------------------------------------------------| 
B|--------------------------------------------------------------| 
G|----------11-11-11-11-9-9-9-9--10-10-10-10--------------------| 
D|-x-x-x-x--x--x--x--x--x-x-x-x--x--x--x--x---------------------| 
A|-x-x-x-x--x--x--x--x--x-x-x-x--x--x--x--x---------------------| 
E|-9-9-9-9--9--9--9--9--9-9-9-9--9--9--9--9---------------------| 

e|--------------------------------------------------------------| 
B|--------------------------------------------------------------| 
G|-6-6-6-6-6-6-6-6-5-5-5-5-6-6-6-6------------------------------| 
D|-7-7-7-7-7-7-7-7-7-7-7-7-7-7-7-7------------------------------| 
A|-7-7-7-7-7-7-7-7-7-7-7-7-7-7-7-7------------------------------| 
E|-5-5-5-5-5-5-5-5-5-5-5-5-5-5-5-5------------------------------| 

 
e|---------------------------------------------------------------| 
B|---------------------------------------------------------------| 
G|---------------------------------------------------------------| 
D|---3-3-3-3-3-3-3-3-3-3-3-3-3-3-3-3-----------------------------| 
A|---3-3-3-3-3-3-3-3-3-3-3-3-3-3-3-3-----------------------------| 
E|-0-1-1-1-1-1-1-1-1-1-1-1-1-1-1-1-1-----------------------------| 

 
e|---------------------------------------------------------------| 
B|---------------------------------------------------------------| 
G|-----------------11-11-11-11--9-9-9-9--10-10-10-10-------------| 
D|-2--3--3--3--3---x--x--x--x---x-x-x-x--x--x--x--x--------------| 
A|-2--3--3--3--3---8--8--8--8---8-8-8-8--8--8--8--8--------------| 
E|-0--1--1--1--1-------------------------------------------------| 

e|--------------------------------------------------------------| 
B|--------------------------------------------------------------| 
G|----------11-11-11-11-9-9-9-9--10-10-10-10--------------------| 
D|-x-x-x-x--x--x--x--x--x-x-x-x--x--x--x--x---------------------| 
A|-x-x-x-x--x--x--x--x--x-x-x-x--x--x--x--x---------------------| 
E|-9-9-9-9--9--9--9--9--9-9-9-9--9--9--9--9---------------------| 

e|--------------------------------------------------------------| 
B|--------------------------------------------------------------| 
G|-6-6-6-6-6-6-6-6-5-5-5-5-6-6-6-6------------------------------| 
D|-7-7-7-7-7-7-7-7-7-7-7-7-7-7-7-7------------------------------| 
A|-7-7-7-7-7-7-7-7-7-7-7-7-7-7-7-7------------------------------| 
E|-5-5-5-5-5-5-5-5-5-5-5-5-5-5-5-5------------------------------| 

  
e|---------------------------------------------------------------| 
B|---------------------------------------------------------------| 
G|---------------------------------------------------------------| 
D|---3-3-3-3-3-3-3-3-3-3-3-3-3-3-3-3-----------------------------| 
A|---3-3-3-3-3-3-3-3-3-3-3-3-3-3-3-3-----------------------------| 
E|-0-1-1-1-1-1-1-1-1-1-1-1-1-1-1-1-1-----------------------------| 

  
e|---------------------------------------------------------------| 
B|---------------------------------------------------------------| 
G|---------------------------------------------------------------| 
D|---3-3-3-3-3-3-3-3-3-3-3-3-3-3-3-3-----------------------------| 
A|---3-3-3-3-3-3-3-3-3-3-3-3-3-3-3-3-----------------------------| 
E|---1-1-1-1-1-1-1-1-1-1-1-1-1-1-1-1-----------------------------| 

e|-----| 
B|-----| 
G|-----| 
D|---3-| 
A|---3-| 
E|---1-| 
		  

See also:

tabs Jack Johnson - Good People tabs Creed - One Last Breath tabs Guns N' Roses - Sweet Child o' mine tabs Foo Fighters - Learn to Fly (acoustic version) tabs The Strokes - Reptilia tabs Jack Johnson - Breakdown (intro)
e-chords

Other versions:

tabs The Dillinger Escape Plan - Farewell, Mona Lisa
auto scroll beats size up size down change color hide chords drawings
tab show chords e-chords YouTube Clip e-chords hide all tabs e-chords go to top tab

share with facebook