The Dillinger Escape Plan

Abe The Cop

The Dillinger Escape Plan

tabs nolevel nolevel

by  GUSTSILVA

save to print version add songbook text version e-mail correct tuner
chordsukulelecavacokeyboardtabbassdrumsharmonicaflute Guitar Pro
close

there isn't a video lesson for this song

chords

Abe The Cop

	  		Opening bar: 

e|---------------------| 
B|---------------------| 
G|---------------------| 
D|-4---------8----7----| 
A|-2---------6----5----| 
E|-2---------6----5----| 

e|-----------------------------------------------------------------------------------------------------| 
B|-----------------------------------------------------------------------------------------------------| 
G|-12-13-10--------------------------------12-14-11-12-13-10-------------------------------------------| 
D|----------12-14-11--------12-11-13-10----------------------12-14-11-------------------11-12-13-14-14-| 
A|-------------------14-13--------------14----------------------------14-13-11-12-13-14----------------| 
E|-----------------------------------------------------------------------------------------------------| 

e|-----------------------------------------------------------------------------------------------------| 
B|-----------------------------------------------------------------------------------------------------| 
G|-----------------------------------------------------------------------------------------------------| 
D|-3---------------------------------------------------------------------------------------------------| 
A|-1---------------------------------------------------------------------------------------------------| 
E|-1---------------------------------------------------------------------------------------------------| 

e|------------------------| 
B|------------------------| 
G|-----------13-----12----| 
D|-15---------------------| 
A|------------------------| 
E|------------------------| 

e|-------------------| 
B|-------------------| 
G|-------------------| 
D|-4--------8----7---| 
A|-2--------6----5---| 
E|-2--------6----5---| 

e|--------------------------------------------------10----------------12----11--------14-----| 
B|--------------------------------13-11----11----11----11----11----13----12----12-15------17-| 
G|-12-13-15--------------13----13-------11----13----------11----13---------------------------| 
D|----------15-14----1516---15---------------------------------------------------------------| 
A|----------------16-------------------------------------------------------------------------| 
E|-------------------------------------------------------------------------------------------| 

e|-----------------------------------------------------------------------------------------| 
B|-----------------------------------------------------------------------------------------| 
G|-----------------------------------------------------------------------------------------| 
D|-3---------------------------------------------------------------------------------------| 
A|-1---------------------------------------------------------------------------------------| 
E|-1---------------------------------------------------------------------------------------| 

e|----------------------------------------| 
B|-20-------------------------------------| 
G|-------17---16--------------------------| 
D|-----------------8----7---3---3---3---3-| 
A|-----------------6----5---1---1---1---1-| 
E|-----------------6----5---1---1---1---1-| 

e|----------------------------------------| 
B|----------------------------------------| 
G|----------------------------------------| 
D|-4---------------8----7---3---3---3---3-| 
A|-2---------------6----5---1---1---1---1-| 
E|-2---------------6----5---1---1---1---1-| 
		  

See also:

tabs Jack Johnson - Good People tabs Creed - One Last Breath tabs Guns N' Roses - Sweet Child o' mine tabs Foo Fighters - Learn to Fly (acoustic version) tabs The Strokes - Reptilia tabs Jack Johnson - Breakdown (intro)
e-chords

Other versions:

tabs The Dillinger Escape Plan - Abe The Cop
auto scroll beats size up size down change color hide chords drawings
tab show chords e-chords YouTube Clip e-chords hide all tabs e-chords go to top tab

share with facebook