The Dead Weather

Open Up Thats Enough

The Dead Weather

tabs

by  BRUNBLAZKOWSKI

save to print version add songbook text version e-mail correct tuner
chordsukulelecavacokeyboardtabbassdrumsharmonicaflute Guitar Pro
close

there isn't a video lesson for this song

chords

Open Up Thats Enough

	  		



     INTRO 
e|-----------------------------------------------------------------| 
B|-----------------------------------------------------------------| 
G|---9-9-9---12-12-12---15-15-15---14-14-14------------------------|   (Repeat x4) 
D|---9-9-9---12-12-12---15-15-15---14-14-14------------------------| 
A|---7-7-7---10-10-10---13-13-13---12-12-12------------------------| 
E|-----------------------------------------------------------------| 

e|---------------------------------------------------------------| 
B|---------------------------------------------------------------| 
G|--9------------------------------------------------------------|   (Let Ring) 
D|--9------------------------------------------------------------| 
A|--7------------------------------------------------------------| 
E|---------------------------------------------------------------| 



     BASS LINE (Bridge) 
e|-----------------------------------------------------------------| 
B|-----------------------------------------------------------------| 
G|-----------------------------------------------------------------| 
D|-----------------------------------------------------------------| 
A|-----------------3---3-3-3--2--2---------------------------------| 
E|---0---0---0-0---------------------------------------------------| 

e|-----------------------------------------------------------------| 
B|-----------------------------------------------------------------| 
G|-----------------------------------------------------------------| 
D|-----------------------------------------------------------------| 
A|-----------------3---3-3-3--5--2---------------------------------| 
E|---0---0---0-0---------------------------------------------------| 



     VERSE (Main Riff) (What you came here for) 
e|-----------------------------------------------------------------| 
B|-----------------------------------------------------------------| 
G|---9--9--9--9--9-------------------------------------------------| 
D|---9--9--9--9--9-----10--10--9-----------------------------------| 
A|---7--7--7--7--7-----10--10--9-----------------------------------| 
E|----------------------8---8---7----------------------------------| 

e|-----------------------------------------------------------------| 
B|-----------------------------------------------------------------| 
G|---9--9--9--9--9-------------------------------------------------| 
D|---9--9--9--9--9-----10--10--10--12--9---------------------------| 
A|---7--7--7--7--7-----10--10--10--12--9---------------------------| 
E|----------------------8---8---8---10--7--------------------------| 



       Chorus (Open up, thats enough) 
e|-------------| 
B|-------------| 
G|----------9--|   (Repeat, this should 
D|---10--9--9--|    be easy to suss out) 
A|---10--9--7--| 
E|---8---7-----| 



      SYNTH (Variation of other bridge) 
e|-----------------------------------------------------------------| 
B|-----------------------------------------------------------------| 
G|-----------------------------------------------------------------| 
D|-----------------------------------------------------------------| 
A|-----------------------------------------------------------------| 
E|---0---0---0-0---3---3-3-3--2--2---------------------------------| 

e|-----------------------------------------------------------------| 
B|-----------------------------------------------------------------| 
G|-----------------------------------------------------------------| 
D|-----------------------------------------------------------------| 
A|-----------------------------------------------------------------| 
E|---0---0---0-0---3---3-3-3--5--2---------------------------------| 
 
		  

auto scroll beats size up size down change color hide chords drawings
tab show chords e-chords YouTube Clip e-chords hide all tabs e-chords go to top tab

share