The Dead Kennedys

Holiday In Cambodia

The Dead Kennedys

tabs Beginner beginner

save to print version add songbook text version e-mail correct tuner
chordsukulelecavacokeyboardtabbassdrumsharmonicaflute Guitar Pro
close

there isn't a video lesson for this song

chords

Holiday In Cambodia

	  		 
 
By The Dead Kennedys    
 
Bass Riff                                                                
||--------------------------------------------------------|| 
||--------------------------------------------------------|| 
||*------------------------------------------------------*|| 
||*------------------------------------------------------*|| 
||---3---3--3--2--2--2--1--1--1--0--0--0--0--0--0--0--0---|| 
||--------------------------------------------------------|| 
 
Rakes       
((17----\---8\---|| 
((---------------|| 
((---------------|| 
((---------------|| 
((---------------|| 
((---------------|| 
 
"A" Octaves                                            
||-----------------------------------|| 
||-----------------------------------|| 
||---14--14--14--14--14--14--14--14--|| 
||-----------------------------------|| 
||---12--12--12--12--12--12--12--12--|| 
||-----------------------------------|| 
 
Riff 1                                                                           
----------------------------------------------------------------------- 
----------------------------------------------------------------------- 
-5-----9--8-----5--5--5--4--11--10-----14--14--5-----9--8-----5--5--5-- 
----0---------------------------------------------0-------------------- 
-3-----7--6-----3--3--3--2--9---9------12--12--3-----7--6-----3--3--3-- 
----------------------------------------------------------------------- 
 
--------------|| 
--------------|| 
4--11--10-----|| 
--------------|| 
2--9----9-----|| 
--------------|| 
                                                                         
Arpegiated Chords1                                                              
-----------7-----------------10------------7----------------10--------- 
--------7-----7----------10------10-----------7-----------------10----- 
-----7---------------11-----------------7--------7------11----------10- 
--9--------------12------------------9--------------12----------------- 
----------------------------------------------------------------------- 
----------------------------------------------------------------------- 
 
----------7--------- 
-------7-----7------ 
-------------------- 
---9------------7--- 
-------------------- 
-------------------- 
 
 
 
Riff 2                                                                           
  
----------------------------------------------------------------------- 
----------------------------------------------------------------------- 
-7--7--7--7--7--7--7--7--5--5--5--5--5--5--5--5--------------5--5--5--5 
-------------------------------------------------5--5--5--5------------ 
-5--5--5--5--5--5--5--5--3--3--3--3--3--3--3--3--------------3--3--3--3 
-------------------------------------------------3--3--3--3------------ 
 
---------------------|| 
---------------------|| 
---------------------|| 
7--7--7--7--7--7--7--|| 
---------------------|| 
3--3--3--3--3--3--3--|| 
 
Arpegiated Chords 2                                                      
-------------5--5--------------------7--7------------------------8----- 
-------6--6--------6--6--------8--8--------8--8----------10--10-------- 
-7--7--------------------9--9--------------------10--10---------------- 
----------------------------------------------------------------------- 
----------------------------------------------------------------------- 
----------------------------------------------------------------------- 
 
8----------------------7--7--------|| 
---10--10--------8--8--------8--8--|| 
-----------9--9--------------------|| 
-----------------------------------|| 
-----------------------------------|| 
-----------------------------------|| 
                                                                         
Chorus                                                                   
----------------------------------------------13--|| 
----------------------------------------------13--|| 
-2--5--7--5--2--5--7--5--2--5--7--5-----------14--|| 
-0--5--7--5--0--5--7--5--0--5--7--5--7--5--3--15--|| 
-0--3--5--3--0--3--5--3--0--3--5--3--7--5--3------|| 
-------------------------------------5--3--1------|| 
 
Solo                             
-17--17--18--18--19--19--18--\|| 
------------------------------|| 
------------------------------|| 
------------------------------|| 
------------------------------|| 
------------------------------|| 
 
Bridge 1 
||------------------|| 
||------------------|| 
||*---------9--10--*|| 
||*--10--9---------*|| 
||----------7--8----|| 
||---8---7----------|| 
 
 
 
Bridge 2 
----------------------------------------------------------------------- 
----------------------------------------------------------------------- 
7--7--7--7--7--7--7--7--5--5--5--5--5--5--5--5--------------5--5--5---- 
------------------------------------------------5--5--5--5------------- 
----------------------------------------------------------------------- 
----------------------------------------------------------------------- 
                                                                         
--------------------------- 
--------------------------- 
5-------------------------- 
---7--7--7--7--7--7--7--7-- 
--------------------------- 
--------------------------- 
                                                                         
Bridge 3  
|-------------------------------------------------------------------- 
|-------------------------------------------------------------------- 
|-------------------------------------------------------------------- 
|-----2-----2-----2-----2-----5-----5-----5-----5-----7-----7-------- 
|--0-----0-----0-----0-----3-----3-----3-----3-----5-----5-----5----- 
|-------------------------------------------------------------------- 
                                                                                                                                        
--------------------------------------| 
--------------------------------------| 
--------------------------------------| 
7-----7-----10-----10-----10-----10---| 
---5-----8------8------8------8-------| 
--------------------------------------| 
                                                                       
-----------------------| 
-----------------------| 
-2-----5-----7-----10--| 
-2-----5-----7-----10--| 
-0-----3-----5-----8---| 
-----------------------| 
 

		  

See also:

tabs Blink 182 - All The Small Things tabs Blink 182 - All The Small Things (Original) tabs Green Day - Minority tabs Green Day - Macy's Day Parade tabs Social Distortion - Story Of My Life tabs Goo Goo Dolls - Name
e-chords

Other versions:

tabs The Dead Kennedys - Holiday In Cambodia
auto scroll beats size up size down change color hide chords drawings
tab show chords e-chords YouTube Clip e-chords hide all tabs e-chords go to top tab

share