The Cruel Sea

Cocaine

The Cruel Sea

tabs Expert expert

save to print version add songbook text version e-mail correct tuner
chordsukulelecavacokeyboardtabbassdrumsharmonicaflute Guitar Pro
close

there isn't a video lesson for this song

chords

Cocaine

	  		Australia 
Song:		Cocaine 
Artist:		The Cruel Sea 
Album:		Where Theres Smoke 
Tabbed by: 	Tits 
 
The main riff for Cocaine (i am sure this is very close). 
 
 
e-----------------------------|----------------------------| 
B-----------------------------|----------------------------| 
G-----------------------------|----------------------------| 
D---7-7-7-7---------7--10b--7-|-7-7-7-7---------7--------7-|Repeat 
A------------7--10------------|----------7--10-----10-10---| 
E-----------------------------|----------------------------| 
 
 
Tabbed by chris prest (Tits)  [email protected] 
 
 
 
 
---------------------------------------------------------------------------- 
 
 
Song:     Cocaine 
Artist:   The Cruel Sea 
Album:    Where theres smoke 
Original: Dillenger 
Tabbed By:  Chris 
 
 
This is the main riff for Cocaine as i hear it. 
 
 
e---------------------------------------------- 
B---------------------------------------------- 
G---------------------------------------------- 
D---------------------------------------------- 
A----------------3b---------------------------- 
E--0-0-0-2--3--5----5----0-0-0-2-3-5-3b-5------ 
    PM                     PM 
 
 
Palm mute the open E and F # - gradually lift the mute. 
 
 
This is just about perfect if you listen to song. 
 
 
I think Public Enemy's sampled this for Shake your Booty. I haven't 
heard shake your booty for a while, but it think its exactly the same. 
Either that or something like: 
 
 
A----------------3b------------------3b--------- 
E--0-0--0---3--5----5----5-5--5--3-5-----5------ 
 
 
 
Can someone with some ability tab some Cruel Sea songs. 
 
 
 

		  

Full key step upFull key step up
Half key step upHalf key step up
Half key step downHalf key step down
Full key step downFull key step down
hide glossary

See also:

tabs The Vines - Outatheway tabs Little Birdy - Relapse tabs Mi-Sex - Computer Games tabs Pete Murray - Freedom tabs Xavier Rudd - Solace tabs Wolfmother - Minds Eye
e-chords

Other versions:

tabs The Cruel Sea - Cocaine tabs Fidlar - Cocaine tabs Eric Clapton - Cocaine (tab) tabs Eric Clapton - Cocaine (ver. 2) tabs Townes Van Zandt - Cocaine Blues tabs Johnny Cash - Cocaine Blues (live)
auto scroll beats size up size down change color hide chords drawings
tab show chords e-chords YouTube Clip e-chords hide all tabs e-chords go to top tab

share