The Cruel Sea

Blame It On The Moon

The Cruel Sea

tabs

save to print version add songbook text version e-mail correct tuner
chordsukulelecavacokeyboardtabbassdrumsharmonicaflute Guitar Pro
close

there isn't a video lesson for this song

chords

Blame It On The Moon

	  		Australia 
"BLAME IT ON THE MOON"   by  "The Cruel Sea" 
 
SOLO: 
 
 
|----------------------------------------------------------------------- 
|----------------------------------------------------------------------- 
|----------------------------------------------------------------------- 
|----------------------------------2h3-2--0----------------------------- 
|-------0--0-0-0---0---0--2--3---------------3----2--------------------- 
|-0-0-0----------3---3-------------------------------0-0---------------- 
 
 
 
 
|----------------------------------------------------------------------------- 
|----------------------------------------------------------------------0--1--- 
|----------------------------------------------------------------0--2--------- 
|-----------------------------2h3-2--0h2-0--------------0--2--3--------------- 
|-0--0-0-0---0---0-2-3-2h3p2-------------------0--2--3------------------------ 
|----------3---3----------------------------3--------------------------------- 
 
 
 
|------------------ 
|--0h1-0----------- 
|----------2h4-2--- 
|------------------ 
|------------------ 
|------------------ 
 
         This was as close as i could get it. If you've got any adjustments ide like to  
  know. 
               TITS   email:  [email protected] 
   

		  

See also:

tabs The Vines - Outatheway tabs Little Birdy - Relapse tabs Mi-Sex - Computer Games tabs Pete Murray - Freedom tabs Xavier Rudd - Solace tabs Wolfmother - Minds Eye
e-chords

Other versions:

tabs The Cruel Sea - Blame It On The Moon
auto scroll beats size up size down change color hide chords drawings
tab show chords e-chords YouTube Clip e-chords hide all tabs e-chords go to top tab

share